Down On The Farm

Guns N' Roses

Composição: Alvin Gibbs / Charlie Harper / Nicholas Garrett
Intro:
G|--------------------------------------------------------|
D|--------------------------------------------------------|
A|-------------2000000002224-2--------------2000000002224-|
E|-00000-422222---------------4200000-422222--------------|

G|---------------------------------------------|
D|---------------------4-2---------------------|
A|------------2-4-0-2-4---4-------4-2----------|
E|-00000422222-------------4-0-2-4---4-2-00000-|

Bridge:
G|-------------------------------------------------------------|
D|-------------------------------------------------------------|
A|-11111111111110--------444444441111111111110--------44444444-|
E|---------------42222222---------------------42222222---------|
Página 1 / 1

Letras e título
Acordes e artista

resetar configurações
OK