Cifra Club

Aprenda

Dust In The Wind

Guns N' Roses

Cifra: Principal (violão e guitarra)
Tom: G
Guitar Solo (Slash)


|----------------|------------------|-------------|------------------|
|----------------|------------------|-------------|--10---12-10-9-10-|
|----------9-----|-9-----11-11-9----|--11---------|------------------|
|-----9/11---11--|---------------11-|----------11-|------------------|
|----------------|------------------|-------------|------------------|
|----------------|------------------|-------------|------------------|   


|-----------------------|--------|------------|----------------------|
|-9h10h9----9-------12--|--------|------------|-------10----12bh10---|
|--------11---11b______-|--11b---|-11bh9------|--9/11----11----------|
|-----------------------|--------|-------11---|----------------------|
|-----------------------|--------|------------|----------------------|
|-----------------------|--------|------------|----------------------|        
 
|-------------------|------9-12-----------|-12-----12--------------- |  
|--12--10------9----|--12b------12bh10----|----12b----12bh10---------|
|---------9/11---11-|------------------11-|-------------------11-----|
|-------------------|---------------------|--------------------------|
|-------------------|---------------------|--------------------------|
|-------------------|---------------------|--------------------------|

|-12-----12---------|--------12b--|--12b-12b--|--12b-12b--|--12b-12b-| 
|----12b----12b--10-|-----10------|-----------|-----------|----------|
|-------------------|--11---------|-----------|-----------|----------|
|-------------------|-------------|-----------|-----------|----------|
|-------------------|-------------|-----------|-----------|----------|
|-------------------|-------------|-----------|-----------|----------|

|--12b-12-----------|-12-----12---|--------------|-------------------|
|----------12b------|----12b------|-12bh10----12-|--9-10----9-10-12--|
|-------------------|-------------|--------11----|-------12----------|
|-------------------|-------------|--------------|-------------------|
|-------------------|-------------|--------------|-------------------|
|-------------------|-------------|--------------|-------------------|

|--9-----12---------|--------------12----|-12------|
|----12b----12b--10-|--12-10-12/14----12-|----15b--|
|-------------------|--------------------|---------|
|-------------------|--------------------|---------|
|-------------------|--------------------|---------|
|-------------------|--------------------|---------|

|-------------------------------|-----17---------------------------|
|--14h15h14----14-----14-15-14--|--15----15-14-15h17h14----14------|
|-----------16----16------------|-----------------------16---------|
|-------------------------------|----------------------------------|
|-------------------------------|----------------------------------|
|-------------------------------|----------------------------------|

|---------------14-17-16-17-----|--14h17h14----14-----17--17-------|
|--12/14------------------------|-----------17----17b_______-------|
|---------16b-------------------|----------------------------------|
|-------------------------------|----------------------------------|
|-------------------------------|----------------------------------|
|-------------------------------|----------------------------------|

|----------------17-17----------|----------------------------------|
|--17-14-17---------------------|----------------------------------|
|------------16b_______---------|--16--14----14h16-14--------------|
|-------------------------------|---------16-----------------------|
|-------------------------------|----------------------------------|
|-------------------------------|----------------------------------|

Deve-se afinar a guitarra meio tom a baixo, como em todas as músicas do guns 

F#m            F#m/F           F#m/E        F#m/Eb
     Tell everybody that I am sorry, truly sorry 
  D                E         A  
     For all the wrong I've done
F#m           F#m/F           F#m/E   F#m/Eb
     I never meant to hurt nobody, no no 
   D         E             A              Bm C#m 
     Lord I never want to do no wrong 



   D                              C#m
     And I have lied, and I have begged and I have cheated 
   Bm                      A          A7 
     And I know my ship, it won't be coming in 
   D                 C#m
     And as I lay me down to take my rest
          Bm                 D                G  A    (A A/G#)
    I can see that it's just dust in the wind 

    Take hold my hand, and hold it tighter, ever tighter 
    You must believe that I love you still 
    But my strength, it grows weaker, and weaker 
    And my body has lost its will 

    'Cause I have lied, and I have begged and I have cheated 
    And I know my ship, it won't be coming in 
    And as I lay me down to take my rest 
    I can see that it's just dust in the wind 

    Solo: Mesmos acordes dos versos

  F#m                D               
    Oh Lord, I have lost once again 
  C#     F#m/D [   Eb   E   F ]              F#m    (as notas entre colchetes indicam a mudança do baixo) 
    And there's no one to help me find my way home
F#m/F [E Eb ]  D  A          D                    A
    Lord   and    I, Lord I never want to hurt nobody 
        D          A                         Bm C#m
    And I, Lord I never want to do no wrong 

   D                              C#m      
    'Cause I have lied, and I have begged and I have cheated 
   Bm                      A          A7 
    And I know my ship, it won't be coming in 
   D                 C#m
    And as I lay me down to take my rest 
          Bm                 D                G  A     Final: Bm6b D G A 
    I can see that it's just dust in the wind
Composição de Kerry Livgren
Colaboração e revisão:
  • Victor Menezes
62.899 exibições
    • ½ Tom
    • A
    • Bb
    • B
    • C
    • Db
    • D
    • Eb
    • E
    • F
    • F#
    • G
    • Ab
  • Adicionar à lista

    0 comentários

    Mostrar mais comentários

    Conseguiu tocar?

    0 Tocaram 0 Ainda não

    Grave um vídeo tocando Dust In The Wind e mande pra gente!

    00:00 / 00:00
    outros vídeos desta música
    repetir qualidade Automático
    Outros vídeos desta música
    00:00 / 00:00
    Automático

    Cifra Club Pro

    Aproveite o Cifra Club com benefícios exclusivos e sem anúncios
    7 dias grátis
    Cifra Club Pro
    Aproveite o Cifra Club com benefícios exclusivos e sem anúncios
    7 dias grátis
    OK