Cifra Club

Aprenda

It's So Easy

Guns N' Roses

Tab de baixo: Principal
Tune Down

F#||-------------------------------------------|
C#||--12h14--14--14--14--12h14--14--14--12h14--|
G#||-------------------------------------------|
D#||-------------------------------------------|
                                            
-------------------------------------------|
--14--14--12h14--14--12h14--14--12h14--14--|
-------------------------------------------|
-------------------------------------------|
                                            
-------------------------------------------|
--12h14--14--14--14--12h14--14--14--12h14--|
-------------------------------------------|
-------------------------------------------|
                             
-------------------------------------------|
--14--14--12h14--14--12h14--14--12h14--14--|
-------------------------------------------|
-------------------------------------------|
                                            
-------------------------------------------|
--12h14--14--14--14--12h14--14--14--12h14--|
-------------------------------------------|
-------------------------------------------|
                                            
-------------------------------------------|
--14--14--12h14--14--12h14--14--12h14--14--|
-------------------------------------------|
-------------------------------------------|
                                                                              
-------------------------------------------|---------------------------------|
--12h14--14--14--14--12h14--14--14--12h14--|--14--14--14--12--14--12---------|
-------------------------------------------|--------------------------14-----|
-------------------------------------------|------------------------------0--|

                                                     3x
|-------------------------|--------------------------||
|*------------------------|-------------------------*||
|*------------------------|----7--7-----5--7--7-----*||
|---6----6--0--3--3----0--|----------7-----------0---||

                                                     3x
--------------------------|--------------------------||
*-------------------------|-------------------------*||
*-------------------------|----7--7-----5--7--7-----*||
---5--5--3--5--6----6--0--|----------7-----------0---||

                                                    3x
-------------------------|--------------------------||
*------------------------|-------------------------*||
*------------------------|----7--7-----5--7--7-----*||
---6----6--0--3--3----0--|----------7-----------0---||

                                                     3x                     
--------------------------|--------------------------||--------------------|
*-------------------------|-------------------------*||*-------------------|
*-------------------------|----7--7-----5--7--7-----*||*-------------------|
---5--5--3--5--6----6--0--|----------7-----------0---||---2----------------|
                                                              
-------------------|-------------------|--------------------||
-------------------|-------------------|-------------------*||
-------------------|--2----------------|--0----------------*||
--3----------------|-------------------|--------------------||
                                                     
----------------------|----------------------|----------------------|
----------------------|----------------------|----------------------|
--7----7----7----7----|--7----7----7----7----|--7----7----7----7----|
----------------------|----------------------|----------------------|
                                           
--------------------------||--------------------------|
--------------------------||*-------------------------|
--7--7--7--5--7--5--------||*--5----5--4--5-----------|
--------------------7--0--||-----------------3--2--0--|

                         3x                                                   
-------------------------||------------------------|-------------------------|
------------------------*||------------------------|-------------------------|
----7-------5--7--7-----*||------------------------|----7--7-----5--7--7-----|
---------7-----------0---||--6----6--0--3--3----0--|----------7-----------0--|
                                                                            
------------------------|-------------------------|------------------------|
------------------------|-------------------------|------------------------|
------------------------|----7--7-----5--7--7-----|------------------------|
--6----6--0--3--3----0--|----------7-----------0--|--6----6--0--3--3----0--|
                                                                             
-------------------------|------------------------|-------------------------|
-------------------------|------------------------|-------------------------|
----7--7-----5--7--7-----|------------------------|----7--7-----5--7--7-----|
----------7-----------0--|--6----6--0--3--3----0--|----------7-----------0--|

                                                     3x
|-------------------------|--------------------------||
|*------------------------|-------------------------*||
|*------------------------|----7--7-----5--7--7-----*||
|---6----6--0--3--3----0--|----------7-----------0---||

                                                     3x                     
--------------------------|--------------------------||--------------------|
*-------------------------|-------------------------*||*-------------------|
*-------------------------|----7--7-----5--7--7-----*||*-------------------|
---5--5--3--5--6----6--0--|----------7-----------0---||---2----------------|
                        
-------------------|-------------------|--------------------||
-------------------|-------------------|-------------------*||
-------------------|--2----------------|--0----------------*||
--3----------------|-------------------|--------------------||
                                           
----------------------|---------------------|---------------------|
*---------------------|---------------------|---------------------|
*---------------------|---------------------|--2------2--2--------|
---2------2--2--------|--3------3--3--------|---------------------|
                                                                           
----------------------||------------------------|-------------------------|
---------------------*||------------------------|-------------------------|
---------------------*||------------------------|----7--7-----5--7--7-----|
--5------5--5---------||--6----6--0--3--3----0--|----------7-----------0--|
                                                                            
------------------------|-------------------------|------------------------|
------------------------|-------------------------|------------------------|
------------------------|----7--7-----5--7--7-----|------------------------|
--6----6--0--3--3----0--|----------7-----------0--|--6----6--0--3--3----0--|
                                                            
-------------------------|------------------------|-------------------------|
-------------------------|------------------------|-------------------------|
----7--7-----5--7--7-----|------------------------|----7--7-----5--7--7-----|
----------7-----------0--|--6----6--0--3--3----0--|----------7-----------0--|
                                                                            
------------------------|-------------------------|------------------------|
------------------------|-------------------------|------------------------|
------------------------|----7--7-----5--7--7-----|------------------------|
--6----6--0--3--3----0--|----------7-----------0--|--6----6--0--3--3----0--|
                                                                             
-------------------------|------------------------|-------------------------|
-------------------------|------------------------|-------------------------|
----7--7-----5--7--7-----|------------------------|----7--7-----5--7--7-----|
----------7-----------0--|--6----6--0--3--3----0--|----------7-----------0--|
                                                               
------------------------|-------------------------||---------------------------|
------------------------|-------------------------||*--8--7--5-----------------|
------------------------|----7--7-----5--7--7-----||*-----------7--------------|
--6----6--0--3--3----0--|----------7-----------0--||---------------6--5--3--0--|

                          2x                                               
--------------------------||--------------------------|------------------||
-------------------------*||--8--7--5-----------------|------------------||
----7--7--0--5--7--7-----*||-----------7-----------7--|------------------||
----------------------0---||--------------6--5--3--0--|------------------||
Composição de Guns N' Roses / West Arkeen
Colaboração e revisão:
  • Tiago
21.015 exibições

0 comentários

Mostrar mais comentários

Conseguiu tocar?

4 Tocaram 1 Ainda não

Grave um vídeo tocando It's So Easy e mande pra gente!

00:00 / 00:00
outros vídeos desta música
repetir qualidade Automático
Outros vídeos desta música
00:00 / 00:00
Automático
OK