Notificações Amigos pendentes

      Guns N' Roses

      Knockin' On Heaven's Door

      2.126.532 exibições
      Tom: G
      (afinação da guitarra 1/2 tom abaixo)
      E|--> eb
      B|--> Bb
      G|--> Gb
      D|--> Db
      A|--> Ab
      E|--> Eb
      
      (intro)
      
      (parte 1)
      
      E|-3-3-------------2-0-------|
      B|-3---3---3-----3-----3---3-|
      G|-0-----0-----2---------2---|
      D|-0---------0---------------|
      A|-2-------------------------|
      E|-3-------------------------|
      
      
      (parte 2)
      
      E|---------------0-------------------|
      B|---------1----------1--------------|
      G|-0-----0---0------0---0-0-----0----|
      D|-0h2---------2--2-------0h2--------|
      A|-----3----------------------3------|
      E|-----------------------------------|
      
      
      (parte 3)
      
      E|---3-------------2-0-------|
      B|-----3---3-----3-----3---0-|
      G|-------0-----2---------2---|
      D|-0---------0---------------|
      A|-2-------------------------|
      E|-3-------------------------|
      
      
      (parte 4)
      
      E|-----------------------------|
      B|-----1-------1---1-----1-----|
      G|---0---0-------0---0-----0---|
      D|---------2-----------2-----2-|
      A|-3---------3-----------------|
      E|-----------------------------|
      
      
      (ritmo especial pra power chords)
      
      (parte 1)  G5  D5  C5 : ↓
      
      (parte 2)  C5: ↓↓xx ↓↓x xx
      
      (primeira parte)
      
      (partes 1)
      
              G          D
      E|-3--3-------------2-0-------|
      B|-3----3---3-----3-----3---0-|
      G|-0------0-----2---------2---|
      D|-0----------0---------------|
      A|-2--------------------------|
      E|-3--------------------------|
      
      
       (parte 2)
      
              Am
      E|-------------0-----------------|
      B|-----0h1---------1-------------|
      G|---2-----2-----2---2---0---0---|
      D|-----------2---------2---2-----|
      A|-0-----------------------------|
      E|-------------------------------|
      
      
      (parte 3)
      
              G          D
      E|-3--3-------------2-0-------|
      B|-3----3---3-----3-----3---0-|
      G|-0------0-----2---------2---|
      D|-0----------0---------------|
      A|-2--------------------------|
      E|-3--------------------------|
      
      
       (parte 4)
      
              C
      E|-------------------------------|
      B|-----1---------1---------------|
      G|---0---0-----0---0-------------|
      D|---------2----------2---0------|
      A|-3---------3----------3--------|
      E|-------------------------------|
      
      
      G        D                    Am
        Mama, take this badge from me
      G         D          C
        I can't use it anymore
      G                   D              C
        It's getting dark  too dark to see
      G                  D                   C
        Feels like I'm knockin' on heaven's door
      
      (refrão) G5 D5 C5
      (ritmo - como foi ensinado na segunda parte da intro)
      
      
      G5             D5                  C5
       Knock-knock-knockin' on heaven's door
      
      
      G5             D5                  C5
       Knock-knock-knockin' on heaven's door
      
      
      G5             D5                  C5
       Knock-knock-knockin' on heaven's door
      
      
      G5             D5                  C5
       Knock-knock-knockin' on heaven's door
      
      
      (base do primeiro solo) G D  C
      
      (solo 1)
      
       (parte 1)
      
      E|----------------------------------------------------|
      B|-------------------15-------------------------------|
      G|-12-14b16r14p12-14----14b16r14p12-12~---------------|
      D|----------------------------------------------------|
      A|----------------------------------------------------|
      E|----------------------------------------------------|
      
      
      E|--------------------|
      B|----------15/17-15--|
      G|-------12-----------|
      D|-12/14--------------|
      A|--------------------|
      E|--------------------|
      
      
       (parte 2)
      
      E|---------------------------------15-------------15--|
      B|-13p12-13b15-13p12-13p12---12-13----13-12-15/17-----|
      G|----------------------------------------------------|
      D|-------------------------14-------------------------|
      A|----------------------------------------------------|
      E|----------------------------------------------------|
      
      
      E|-17b19-17-17b19-17b19-15~---------------------------|
      B|----------------------------------------------------|
      G|----------------------------------------------------|
      D|----------------------------------------------------|
      A|----------------------------------------------------|
      E|----------------------------------------------------|
      
      
       (parte 3)
      
      E|-20b22-20p19-20-19-20b22-20p19-20-20----------------|
      B|-------------------------------------17-------------|
      G|----------------------------------------------------|
      D|----------------------------------------------------|
      A|----------------------------------------------------|
      E|----------------------------------------------------|
      
      
      E|----------------------------------15----------------|
      B|-15b17r15b17r15-------------------------------------|
      G|----------------14b16r14b16r14p12-------------------|
      D|----------------------------------------------------|
      A|----------------------------------------------------|
      E|----------------------------------------------------|
      
      
      (repete a primeira parte, cantando essa letra junto)
      
      Mama, put my guns in the ground
      I can't shoot them anymore
      That cold black cloud is coming down
      Feels like I'm knockin' on heaven's door
      
      (refrão)
      
      (solo 2) G5 D5 C5
      
      (parte 1)
      
      E|----------10-14b15r14-14-14b15r14-12-14p12----|
      B|-13----13-------------------------------------|
      G|----12----------------------------------------|
      D|----------------------------------------------|
      A|----------------------------------------------|
      E|----------------------------------------------|
      
      
      (parte 2)
      
      E|----------15------15-------------------|
      B|-15b17-17----15b17----17r15-13-15------|
      G|---------------------------------14b16-|
      D|---------------------------------------|
      A|---------------------------------------|
      E|---------------------------------------|
      
      
      E|-15---------------15-------------------|
      B|---15----------15----15-15----15-------|
      G|------16r14p12-14-------14b16-14b16-12-|
      D|---------------------------------------|
      A|---------------------------------------|
      E|---------------------------------------|
      
      
      (parte 3)
      
      E|-------------------------------------20-19-20-20b22-|
      B|----------20----22b24-24r22p20-22-20----------------|
      G|-------19----19-------------------------------------|
      D|-19/21----------------------------------------------|
      A|----------------------------------------------------|
      E|----------------------------------------------------|
      
      
      E|-20-19-20-20b22-20-19-20-22b24-22b24r22----------22-|
      B|----------------------------------------20-22b24----|
      G|----------------------------------------------------|
      D|----------------------------------------------------|
      A|----------------------------------------------------|
      E|----------------------------------------------------|
      
      
      E|-------------------------------|
      B|-24r22-20-22-24r22-20-22-20----|
      G|-------------------------------|
      D|-------------------------------|
      A|-------------------------------|
      E|-------------------------------|
      
      
      (parte 4)
      
      E|-----------------------------------15----15-------|
      B|-19b20-20-19~-19b20r19-17-19p17-17----17----17-15-|
      G|--------------------------------------------------|
      D|--------------------------------------------------|
      A|--------------------------------------------------|
      E|--------------------------------------------------|
      
      
      E|-------------------------|
      B|-13-15-12b13r12-12b13r12-|
      G|-------------------------|
      D|-------------------------|
      A|-------------------------|
      E|-------------------------|
      
      
      (parte 5)
      
      E|------------------------------|
      B|------------------------------|
      G|-12-11-11b12r11p9-9\7-5\4-----|
      D|--------------------------5~\-|
      A|------------------------------|
      E|------------------------------|
      
      
      (segunda parte)
      (ritmo - começar tocando duas vezes pra baixo em cada power chord)
      
      ( G5 D5 C5 )
      
      (segue fazendo variações no power chord de C )
      (sugestões)
         ↓ xx ↓↓ xx     ↓ x xx ↓↓
      
      (letra)
      
      Knock-knock-knockin' on heaven's door
      Knock-knock-knockin' on heaven's door
      Knock-knock-knockin' on heaven's door
      Knock-knock-knockin' on heaven's door
      
        Composição: Túlio MourãoColaboração e revisão:
        • Clausio
        • shaolin
        • ripa
        • Sansão Rocker
        • +8

        Comentários 144

        140 .
        • leonardo leonardo: Em 13/07/2016 12:22

          Conheça nosso Sound City Estúdio, em Perdizes! Rua Apinajés, 1053, salão A. Fone : 11 99323 5151.
          www soundcityestudio com br

        • Filipe Filipe: Em 30/05/2016 16:48

          GG EASY

        • elayne elayne: Em 26/04/2015 14:59

          cara eu amo essa banda tenho dvd deles poister deles no meu quanto pra td lado

        • vanderlei Rodrigues vanderlei Rodrigues: Em 05/04/2015 11:22

          muito bom vou tentar aprender esse solo, muito bem ensinado ótimo...abraços vanderlei/itararé?SP

        • Homer Homer: Em 09/09/2014 17:54

          seria legal se mostrasse sobre quais escalas o solo é feito

        • Alef Alef: Em 24/08/2014 12:15

          Eles falaram errado no solo falaram décima quarta casa de D mais na tab do video tá de G

        • daniel daniel: Em 08/07/2014 15:17

          essa musica e muito foda mais nao ta completa

          • Mateus Mateus: Em 24/02/2015 15:00

            Por que vcs tão cortando a musica da vinheta? É tão legal :(

        • junior junior: Em 09/06/2014 18:45

          musica facil

        • Vinicius Vinicius: Em 23/05/2014 16:56

          meu violao é horrivel , n tem a entrada pra fazer solo ¬¬ , mas aprendi facil pelomenos

        140 cancelar
        0:00 / 0:00
        2 versões de baixo exibições contribuição e correção
        1 versão de bateria exibições contribuição e correção
        1 versão de partiturasformatodownloadscontribuição
        play/pausefechar subir/descer velocidade
        6ª corda E5ª corda A4ª corda D3ª corda G2ª corda B1ª corda E
          acordes
          publicidade
          fechar
          ok