Cifra Club

Aprenda

November Rain

Guns N' Roses

Cifra: Versão 9 (violão e guitarra)
Tom: F# (forma dos acordes no tom de G) Afinação: Eb Ab Db Gb Bb Eb
Intro:
E|------------------------------|--------------------------|--------------------------|--------------------|
A|------------------------------|--------------------------|--------------------------|--------------------|
D|------------------------------|--------------------------|--------------------------|--------------0-----|
G|-----------4--------0---------|---------4--------0------ |------------4-------0-----|--4----0------------|
B|-------2-----2----------------|--------------------------|------2---------2---------|--------------------|
E|------------------------------|------3-------3---------  |--------------------------|3----3--------------|

E|------------------------------|--------------------------|--------------------------|------------------|
A|------------------------------|--------------------------|--------------------------|------------------|
D|------------------------------|--------------------------|--------------------------|------------------|
G|-----------4--------0---------|------------4----0--------|-----------4----0---------|------------------|
B|-------2-----2----------------|---------0-----0----------|--------------------------|-----2---2--------|
E|------------------------------|--------------------------|-----3-------3-----------|--0----2-----------|

Solo Da Introdução:
E|-------------------------------------------------------------|
B|---------------3p2---3p2---3-3p2-----------------------------|
G|-------2-4b6r4-----4-----2-------4--11p9-----9p7--7p6p0------|
D|---2h4------------------------------------12-----------------|
A|-------------------------------------------------------------|
E|-------------------------------------------------------------|

E|----------------------------------------------------14-19----|
B|-------------------2h3-2-----2-3p2---------------15----------|
G|--6p4-0-2-2/4--2/4--------/4-------2-2/4------16-------------|
D|-------------------------------------------17----------------|
A|-------------------------------------------------------------|
E|-------------------------------------------------------------|

E|--17p15-14-15----------------------------------------------------7----|
B|--------------15----------------------------------7-8-10-------7-8----|
G|-----------------7p6-7-9p7-9-11p9-11/12-12-11---7------------7--------|
D|----------------------------------------------9------------9----------|
A|----------------------------------------------------------------------|
E|----------------------------------------------------------------------|

E|---------7-9-10-12-10-9-7-9-9-10-7---------------------------|
B|-------7-----------------------------------------------------|
G|-----7-------------------------------------------------------|
D|---9---------------------------------------------------------|
A|-------------------------------------------------------------|
E|-------------------------------------------------------------|

Introdução:

E|-------------------------------------------------------------|
B|-------------------------------------------------------------|
G|-------------------------------------------------------------|
D|----------------------4---0--0-4-0----4---0-4-4-0---4---0-0--|
A|----2---2---2-2/4-2-2---2-------------------------2---2------|
E|--0---2---0-------------------------3---3--------------------|

E|-------------------------------------------------------------|
B|-------------------------------------------------------------|
G|----------------------------------------------0--------------|
D|-4-0---4---0-4-4-0---4---0-0-4-0---4---0--4-4------4---0-0---|
A|-------------------2---2---------0---0-----------------------|
E|-----3---3---------------------------------------3---3-------|

E|-------------------------------------------------------------|
B|-----------------------------------------------0---0---------|
G|----------------------------------0-7---0----0---0---0-------|
D|-4-0---2h4-2---------0----------7-----7----------------------|
A|---------------4---5-------7--5------------------------------|
E|-----0-------2---3-----3-5-----------------3-----------------|

E|-------1------------------------------------------------1----|
B|---1-----1--------0-----5-----------------0---0-----1-----1--|
G|-----0-----0----0---0-4-------0-7---0---0---0---0-----0-----0|
D|----------------------------7-----7--------------------------|
A|--------------------------5----------------------------------|
E|-1------------0-----------------------3-----------1----------|

E|-------------------------------------------------------------|
B|------0------------------------------------------------------|
G|----0---0----------------------------------------------------|
D|-------------------------------------------------------------|
A|----------2/3--2---------------------------------------------|
E|--0----------------------------------------------------------|

Verso A:
E|-------------------------------------------------------------|
B|-------------------------------------------------------------|
G|-------------------------------------------------------------|
D|---4---0-0-4-0---4---0-4-4-0----4---0-0-4-0---4---0----------|
A|-2---2------------------------2---2--------------------------|
E|---------------3---3------------------------3---3---3/5------|

E|-------------------------------------------------------------|
B|-------------------------------------------------------------|
G|---------------------------0---------------------------------|
D|---4---0-0-4-0---4---0-4-4-----4---0-0-4-0-------------------|
A|-2---2---------0---0-------------------------2---2-----------|
E|-----------------------------3---3---------0---2-------------|

Refrão 1 e 2:
E|-------------------------------------------------------------|
B|-------------------------------------------------------------|
G|-------------------------------------------------------------|
D|------2--4--2-------4--2--4--6--4--2--5--6-------------------|
A|---5--0--2--0--5-4--2--0--2--4--2--0--3--4-------------------|
E|---3-----------3-2-------------------------------------------|

2º Solo:
E|--------------------------------/10-8-7----7-8---------------|
B|-10p7---7-10--10-8-7---7--7h8-----------10-----8-------------|
G|------7--------------9--------7------------------------------|
D|-------------------------------------------------------------|
A|-------------------------------------------------------------|
E|-------------------------------------------------------------|

E|--17p14--------14-17-17-15-14-15p14-----------14-15-17-------|
B|----------15--------------------------15-15------------------|
G|-------------------------------------------------------------|
D|-------------------------------------------------------------|
A|-------------------------------------------------------------|
E|-------------------------------------------------------------|

E|---19p17p15---19p17p15---19p17p15---14-15----14--------------|
B|------------------------------------------17----15-----------|
G|-------------------------------------------------------------|
D|-------------------------------------------------------------|
A|-------------------------------------------------------------|
E|-------------------------------------------------------------|

E|--------------------------------20p17p15--20p17p15--20p17p15-|
B|--7/8-8--8-7--12/13-13-13-13-12------------------------------|
G|--6/7-7--7-7--11/12-12-12-12-12------------------------------|
D|-------------------------------------------------------------|
A|-------------------------------------------------------------|
E|-------------------------------------------------------------|

E|--20p17p15--20p17p15--20p17p15--12p13-12--12p13-12---12------|
B|-------------------------------------------------------------|
G|-------------------------------------------------------------|
D|-------------------------------------------------------------|
A|-------------------------------------------------------------|
E|-------------------------------------------------------------|

3º Refrão:
E|-------------------------------------------------------------|
B|-------------------------------------------------------------|
G|-------------------------------------------------------------|
D|---2-4-2-----4-2--4-6-4-2-5-6----2-4-2------4-2-4-6-4-2-5-6--|
A|-5-0-2-0-5-4-2-0--2-4-2-0-3-4--5-0-2-0-5-4--2-0-2-4-2-0-3-4--|
E|-3-------3-2-------------------3-------3-2-------------------|

E|-------------------------------------------------------------|
B|-------------------------------------------------------------|
G|-------------------------------------------------------------|
D|------------------------4------------------------------------|
A|----5-2---5-2---5----4--2------------------------------------|
E|----3-0---3-0---3----2---------------------------------------|

E|-------------------------------------------------------------|
B|-------------------------------------------------------------|
G|-------------------------------------------------------------|
D|-2-4-5-2---4---4---5---5---2-4-5-2---4---4---5-5-5-5---5-----|
A|-0-2-3-0-5-2-4-2-4-3-5-3-0-0-2-3-0-5-2-4-2-4-3-3-3-3-5-3-0---|
E|---------3---2---2---3-------------3---2---2---------3-------|


E|-------------------------------------------------------------|
B|-------------------------------------------------------------|
G|-------------------------------------------------------------|
D|-2-4-5-2---4---4---5---5---2-4-5-2---4---4---5-5-5-5---5-----|
A|-0-2-3-0-5-2-4-2-4-3-5-3-0-0-2-3-0-5-2-4-2-4-3-3-3-3-5-3-5---|
E|---------3---2---2---3-------------3---2---2---------3---3---|

E|-------------------------------------------------------------|
B|-------------------------------------------------------------|
G|-------------------------------------------------------------|
D|-5-5-5-7-5-----4-4-4-5-4--4---4--5-5-5---5----5-5-5-7-5------|
A|-7-7-7-7-7--0--5-5-5-5-5--2---2--3-3-3---3----7-7-7-7-7--0---|
E|----------------------------2----------3---3-----------------|

E|-------------------------------------------------------------|
B|-------------------------------------------------------------|
G|-------------------------------------------------------------|
D|--4-4-4-5-4--4---4--5-5-5---5----5---------------------------|
A|--5-5-5-5-5--2---2--3-3-3---3----7---------------------------|
E|---------------2----------3---3--0---------------------------|

E|-------------------------------------------------------------|
B|-------------------------------------------------------------|
G|-------------------------------------------------------------|
D|-------------2--------------2---------------2---------------2|
A|-------------2--------------2---------------2---------------2|
E|-0-0-0-0-0-0----0-0-0-0-0-0----0-0-0--0-0-0----0-0-0--0-0-0--|

E|-------------------------------------------------------------|
B|-------------------------------------------------------------|
G|-------------------------------------------------------------|
D|-------------2--------------2--------------2--------------2-3|
A|-------------2--------------2--------------2--------------2-3|
E|-0-0-0-0-0-0----0-0-0-0-0-0----0-0-0-0-0-0----0-0-0-0-0-0----|

E|-------------------------------------------------------------|
B|-------------------------------------------------------------|
G|-------------------------------------------------------------|
D|-------------2-------------2-3-------------2--------------2-3|
A|-------------2-------------2-3-------------2--------------2-3|
E|-0-0-0-0-0-0---0-0-0-0-0-0-----0-0-0-0-0-0----0-0-0-0-0-0----|

E|-------------------------------------------------------------|
B|-------------------------------------------------------------|
G|-------------------------------------------------------------|
D|-------------2-------------2-3-------------2--------------2-3|
A|-------------2-------------2-3-------------2--------------2-3|
E|-0-0-0-0-0-0---0-0-0-0-0-0-----0-0-0-0-0-0----0-0-0-0-0-0----|

E|-------------------------------------------------------------|
B|-------------------------------------------------------------|
G|-------------------------------------------------------------|
D|-------------2-------------2--------------2---------------2-3|
A|-------------2-------------2--------------2---------------2-3|
E|-0-0-0-0-0-0---0-0-0-0-0-0---0-0-0--0-0-0----0-0-0--0-0-0----|

E|-------------------------------------------------------------|
B|-------------------------------------------------------------|
G|-------------------------------------------------------------|
D|-------------2-------------2--------------2---------------2-3|
A|-------------2-------------2--------------2---------------2-3|
E|-0-0-0-0-0-0---0-0-0-0-0-0---0-0-0--0-0-0----0-0-0--0-0-0----|

E|-------------------------------------------------------------|
B|-------------------------------------------------------------|
G|-------------------------------------------------------------|
D|-------------------------------------------------------------|
A|--------------7-------------7-8-------------5-------------5-8|
E|--0-0-0-0-0-0---0-0-0-0-0-0-----0-0-0-0-0-0---0-0-0-0-0-0----|

E|-------------------------------------------------------------|
B|-------------------------------------------------------------|
G|-------------------------------------------------------------|
D|-------------------------------------------------------------|
A|--------------7-------------7-8-------------5-------------5--|
E|--0-0-0-0-0-0---0-0-0-0-0-0-----0-0-0-0-0-0---0-0-0-0-0-0---7|

E|-------------------------------------------------------------|
B|-------------------------------------------------------------|
G|-------------------------------------------------------------|
D|-------------2-------------2--------------2---------------2-3|
A|-------------2-------------2--------------2---------------2-3|
E|-0-0-0-0-0-0---0-0-0-0-0-0---0-0-0--0-0-0----0-0-0--0-0-0----|

E|-------------------------------------------------------------|
B|-------------------------------------------------------------|
G|-------------------------------------------------------------|   (4x)
D|---------------2---------------2---------3-------------------|
A|---------------2---------------2---------3-------------------|
E|---0-0-0-0-0-0-----0-0-0-0-0-0-----0-0-0---------------------|

E|-------------------------------------------------------------|
B|-------------------------------------------------------------|
G|-------------------------------------------------------------|
D|-------------------------------------------------------------|
A|-------------------------------------------------------------|
E|-0-0-0-0-0-0-0-----0-0-0-0-0-0-0-----0-0-0-0-----------------|

E|-------------------------------------------------------------|
B|-------------------------------------------------------------|
G|-------------------------------------------------------------|  (4x)
D|---------------2---------------2---------3-------------------|
A|---------------2---------------2---------3-------------------|
E|---0-0-0-0-0-0-----0-0-0-0-0-0-----0-0-0---------------------|

E|-------------------------------------------------------------|
B|-------------------------------------------------------------|
G|-------------------------------------------------------------|
D|-------------------------------------------------------------|
A|-------------------------------------------------------------|
E|-0-0-0-0-0-0-0-----0-0-0-0-0-0-0-----0-0-0-0-----------------|

E|-------------------------------------------------------------|
B|-------------------------------------------------------------|
G|-------------------------------------------------------------|
D|-------------------------------------------------------------|
A|-------------------------------------------------------------|
E|-0-0-0-0-0-0-0-----0-0-0-0-0-0-0-----0-0-0-0-0-0-------------|

Solo:

E|-19t-15p12-19t-15p12-19t-15p12-19p-15p12-20t-15p12-20t-15p12-|
B|-------------------------------------------------------------|
G|-------------------------------------------------------------|
D|-------------------------------------------------------------|
A|-------------------------------------------------------------|
E|-------------------------------------------------------------|

E|-20t-15p12-20t-15p12-20t-15p12-------------------------------|
B|-------------------------------19t-15p12-19t-15p12-19t-15p12-|
G|-------------------------------------------------------------|
D|-------------------------------------------------------------|
A|-------------------------------------------------------------|
E|-------------------------------------------------------------|

E|-------------------------------------------------------------|
B|-19t-15p12-20t-15p12-20t-15p12-20t-15p12-20t-15p12-17t-13p10-|
G|-------------------------------------------------------------|
D|-------------------------------------------------------------|
A|-------------------------------------------------------------|
E|-------------------------------------------------------------|

E|-------------------------------------------------------------|
B|-17t-13p10-17t-13p10-17t-13p10-18t-13p10-18t-13p10-18t-13p10-|
G|-------------------------------------------------------------|
D|-------------------------------------------------------------|
A|-------------------------------------------------------------|
E|-------------------------------------------------------------|

E|-------------------------------------------------------------|
B|-18t-13p10-17t-12h14-17t-12-17t-10-17t-12-17t-10-17t8-17t10--|
G|-------------------------------------------------------------|
D|-------------------------------------------------------------|
A|-------------------------------------------------------------|
E|-------------------------------------------------------------|

E|-------------------------------------------------------------|
B|-17t-8-17t-7-17t-8-17t-7-17t-5--12-12-12-12-12-12-12-12-12---|
G|-------------------------------------------------------------|
D|-------------------------------------------------------------|
A|-------------------------------------------------------------|
E|-------------------------------------------------------------|

E|--14-14-14-15-15-15-17-17-17----------17-17-17-22b24-22b24---|
B|-----------------------------15-15-15------------------------|
G|-------------------------------------------------------------|
D|-------------------------------------------------------------|
A|-------------------------------------------------------------|
E|-------------------------------------------------------------|

E|-22b24-----15-15h17p15-------------15h17p15------------------|
B|-------/17-------------19-15-17-19-----------19-15-17-19-----|
G|-------------------------------------------------------------|
D|-------------------------------------------------------------|
A|-------------------------------------------------------------|
E|-------------------------------------------------------------|

E|-15h17p15-------------15h17p15-------------15h17p15----------|
B|----------17-15-17-19----------17-15-17-19----------17-15-17-|
G|-------------------------------------------------------------|
D|-------------------------------------------------------------|
A|-------------------------------------------------------------|
E|-------------------------------------------------------------|

E|----15h17p15-------------19p17p15----19p17p15----19p17p15----|
B|-19----------17-15-17-19----------15----------15----------15-|
G|-------------------------------------------------------------|
D|-------------------------------------------------------------|
A|-------------------------------------------------------------|
E|------------------------------------------------------------|

E|-19p17p15-------- 15-----15-----15-----15-18b19-15-----15-18b19-|
B|----------15-18b20--18b20--18b20--18b20-----------18b20---------|
G|----------------------------------------------------------------|
D|----------------------------------------------------------------|
A|----------------------------------------------------------------|
E|----------------------------------------------------------------|

E|-15------19p17p15--17--17p15p14-15----------------------------|
B|---18b20--------------------------19p17p15-17-17p15p13--15----|
G|--------------------------------------------------------------|
D|--------------------------------------------------------------|
A|--------------------------------------------------------------|
E|--------------------------------------------------------------|

E|-------------------------------------------------------------|
B|--15p13\12-13-13p12----12------------------------------------|
G|--------------------14----14p12----12-14b16--14b16--14b16----|
D|--------------------------------14---------------------------|
A|-------------------------------------------------------------|
E|-------------------------------------------------------------|

E|-------------------------------------------------------------|
B|-------------------------------------------------------------|
G|-14b16--14b16--16r14p12----12--------------------------------|
D|------------------------14----14-13-12-----------------------|
A|----------------------------------------14-13-12---10--------|
E|-------------------------------------------------------------|

E|-------------------------------------------------------------|
B|--------15b---------15b----------15b----------15b------------|
G|--------15b16-------15b16--------15b16--------15b16----------|
D|--17-17-------17-17--------17-17--------17-17----------------|
A|-------------------------------------------------------------|
E|-------------------------------------------------------------|

E|-------------------------------------------------------------|
B|-17b18r17b18r17b18r17-----------15b---------15b---------15b--|
G|-17b18r17b18r17b18r17--17p15----15b16-------15b16-------15b16|
D|-----------------------------17-------17-17-------17-17------|
A|-------------------------------------------------------------|
E|-------------------------------------------------------------|

E|-----------------------------------15-------15-----15------15|
B|-------17b--15----15b--------18b20---18b20---18b20---18b20---|
G|-------17b--15----15b----15----------------------------------|
D|-17-17---------17-----17-------------------------------------|
A|-------------------------------------------------------------|
E|-------------------------------------------------------------|

E|-------------------------------------------------------------|
B|-------------------------------------------------------------|
G|-------------------------------------------------------------|
D|-------------------------------------------------------------|
A|-------------------------5-5-5---4-4-4---3-3-3----2-2-2------|
E|----3-3-3---3-3-3-3------------------------------------------|

E|-------------------------------------------------------------|
B|-------------------------------------------------------------|
G|-------------------------------------------------------------|
D|----------------2----------------2-----------3---------------|
A|----------------2----------------2-----------3---------------|
E|----0-0-0-0-0-0------0-0-0-0-0-0-------0-0-0-----------------|

E|-------------------------------------------------------------|
B|-------------------------------------------------------------|
G|-------------------------------------------------------------|
D|----------------2----------------2-----------3---------------|
A|----------------2----------------2-----------3---------------|
E|----0-0-0-0-0-0------0-0-0-0-0-0-------0-0-0-----------------|

E|-------------------------------------------------------------|
B|-------------------------------------------------------------|
G|-------------------------------------------------------------|
D|----------------2----------------2-----------3---------------|
A|----------------2----------------2-----------3---------------|
E|----0-0-0-0-0-0------0-0-0-0-0-0-------0-0-0-----------------|

E|-------------------------------------------------------------|
B|-------------------------------------------------------------|
G|-------------------------------------------------------------|
D|----------------2----------------2-----------3---------------|
A|----------------2----------------2-----------3---------------|
E|----0-0-0-0-0-0------0-0-0-0-0-0-------0-0-0-----------------|

E|-------------------------------------------------------------|
B|-------------------------------------------------------------|
G|-------------------------------------------------------------|
D|-------------------------------------------------------------|
A|--------------------5-5-5---4-4-4---3-3-3----2-2-2-----------|
E|-0-0-0-0-0-0-0-----------------------------------------------|

E|-------------------------------------------------------------|
B|-8-8-8-7---10-10-10-8---12-12-12-10--12p10----10-10----------|
G|---------7------------9--------------------12-------12h11-12-|
D|-------------------------------------------------------------|
A|-------------------------------------------------------------|
E|-------------------------------------------------------------|

E|-------------------------------------------------------------|
B|---------------------8-8-8-7---10-10-10-8---12-12-12-10------|
G|-12-11p9-11-11-9p7-9-----------------------------------------|
D|-------------------------------------------------------------|
A|-------------------------------------------------------------|
E|-------------------------------------------------------------|

E|-------------------------------------------------------------|
B|------12p10---------13-12p10-12------12-10p8-10--------------|
G|------------12-----------------------------------------------|
D|-------------------------------------------------------------|
A|-------------------------------------------------------------|
E|-------------------------------------------------------------|

E|-------------------------------------------------------------|
B|-8-8-8-7---10-10-10-8---12-12-12-10--------------------------|
G|---------7------------9--------------------------------------|
D|-------------------------------------------------------------|
A|-------------------------------------------------------------|
E|-------------------------------------------------------------|

E|-------------------------------------------------------------|
B|--12p10----10--10--12p11--12---------------------------------|
G|--------12-------------------12p11p9-11--11p9p7-9--9p7p6-7---|
D|-------------------------------------------------------------|
A|-------------------------------------------------------------|
E|-------------------------------------------------------------|

E|-------------------------------------------------------------|
B|-------------------------------------------------------------|
G|--7p6---6--6-------------------------------------------------|
D|------9------9p7-9--9p7p5-7----------------------------------|
A|-------------------------------------------------------------|
E|-------------------------------------------------------------|

E|-------------------------------------------------------------|
B|-------------------------------------------------------------|
G|-------------------------------------------------------------|
D|----------------2-----------------2----------3---------------|
A|----------------2-----------------2----------3---------------|
E|----0-0-0-0-0-0-------0-0-0-0-0-0-------0-0-0----------------|

E|-------------------------------------------------------------|
B|-------------------------------------------------------------|
G|-------------------------------------------------------------|
D|----------------2-----------------2----------3---------------|
A|----------------2-----------------2----------3---------------|
E|----0-0-0-0-0-0-------0-0-0-0-0-0-------0-0-0----------------|

E|-------------------------------------------------------------|
B|-------------------------------------------------------------|
G|-------------------------------------------------------------|
D|-------------2-------------2-------3-------------------------|
A|-------------2-------------2-------3-----5-----5-----5-----5-|
E|-0-0-0-0-0-0---0-0-0-0-0-0---0-0-0---3-3-3-3-3-3-3-3-3-3-3-3-|

E|-------------------------------------------------------------|
B|-------------------------------------------------------------|
G|-------------------------------------------------------------|
D|-------------2-------------2-------3-------------------------|
A|-------------2-------------2-------3-----5-----5-----5-----5-|
E|-0-0-0-0-0-0---0-0-0-0-0-0---0-0-0---3-3-3-3-3-3-3-3-3-3-3-3-|

E|-------------------------------------------------------------|
B|-------------------------------------------------------------|
G|-------------------------------------------------------------|
D|-------------------------------------------------------------|
A|-----------2-2------3-----3------------2-2------3-----3------|
E|-0-0-0-0-0-0-0--1-1-1-1-1-1--0-0-0-0-0-0-0--1-1-1-1-1-1------|

E|-------------------------------------------------------------|
B|-------------------------------------------------------------|
G|-------------------------------------------------------------|
D|-------------------------------------------------------------|
A|-----------2-2------3-----3------------2-2------5------5-----|
E|-0-0-0-0-0-0-0--1-1-1-1-1-1--0-0-0-0-0-0-0--3-3-3--3-3-3-----|

E|-------------------------------------------------------------|
B|-------------------------------------------------------------|
G|-------------------------------------------------------------|
D|--------------------------2----------------2----------3------|
A|-----5-----5--------------2----------------2----------3------|
E|-3-3-3-3-3-3--0-0-0-0-0-0------0-0-0-0-0-0------0-0-0--------|

E|-------------------------------------------------------------|
B|-------------------------------------------------------------|
G|-------------------------------------------------------------|
D|-2-2-2---2---2-2-2-----2-2-2---2-2-2-2-----------------------|
A|-2-2-2---2---2-2-2-----2-2-2---2-2-2-2-----------------------|
E|-0-0-0---0---0-0-0-----0-0-0---0-0-0-0-----------------------|
Composição de Axl Rose
Colaboração e revisão:
  • João Victor
  • lucas
6.552 exibições
  • Simplificar cifra
    • ½ Tom
    • A
    • Bb
    • B
    • C
    • Db
    • D
    • Eb
    • E
    • F
    • F#
    • G
    • Ab
  • Adicionar à lista

    0 comentários

    Mostrar mais comentários
    00:00 / 00:00
    outros vídeos desta música
    repetir qualidade Automático
    Outros vídeos desta música
    00:00 / 00:00
    Automático
    OK