Cifra Club

Aprenda

November Rain

Guns N' Roses

Cifra: Solo (violão e guitarra)
Tom: E
E|-------------------8----------------------|
B|-8b10-----b10r8b10---b10r8--6--8b10r8b10--|
G|------------------------------------------|
D|------------------------------------------|
A|------------------------------------------|
E|------------------------------------------|

E|----------8-----------------8~------------|
B|-b10r8b10---b10r8--5b6r5~~-------b6r5b6-5~|
G|------------------------------------------|
D|------------------------------------------|
A|------------------------------------------|
E|------------------------------------------|

E|------------------------------------------|
B|---------8--------------------------------|
G|-7p5-7/9---9\7~-5-------------------------|
D|------------------------------------------|
A|------------------------------------------|
E|------------------------------------------|

E|-------------------8----------------------|
B|-8b10-----b10r8b10---b10r8---6--8b10r8b10-|
G|------------------------------------------|
D|------------------------------------------|
A|------------------------------------------|
E|------------------------------------------|

E|----------8-8b10r8-10b12r-----------------|
B|-b10r8b10---------------------------------|
G|------------------------------------------|
D|------------------------------------------|
A|------------------------------------------|
E|------------------------------------------|

E|-8-10p8----8------------------------------|
B|--------10---12/13~~----------------------|
G|------------------------------------------|
D|------------------------------------------|
A|------------------------------------------|
E|------------------------------------------|

E|-13p12----13p12----13b15--13~-------------|
B|-------13-------13------------------------|
G|------------------------------------------|
D|------------------------------------------|
A|------------------------------------------|
E|------------------------------------------|

E|-10-12-13-12h13p12p10---------------------|
B|------------------------------------------|
G|------------------------------------------|
D|------------------------------------------|
A|------------------------------------------|
E|------------------------------------------|

E|-10-12-13b15r--13-12-13b¼-12~~-19b20~~~---|
B|------------------------------------------|
G|------------------------------------------|
D|------------------------------------------|
A|------------------------------------------|
E|------------------------------------------|

E|-19-19-19\17--17-17\15--15-15\13--13------|
B|------------------------------------------|
G|------------------------------------------|
D|------------------------------------------|
A|------------------------------------------|
E|------------------------------------------|

E|-13p12-12-12h13p12p10--10-13~~~-----------|
B|------------------------------------------|
G|------------------------------------------|
D|------------------------------------------|
A|------------------------------------------|
E|------------------------------------------|

E|-12-13-12-13p12-------12------------------|
B|----------------15-13----13-15-17p15p13---|
G|------------------------------------------|
D|------------------------------------------|
A|------------------------------------------|
E|------------------------------------------|

E|------------------------------------------|
B|-15-12h13-12h13p12h13p12-------12---------|
G|-------------------------14-12----12------|
D|------------------------------------------|
A|------------------------------------------|
E|------------------------------------------|

E|------------------------------------------|
B|--------------------------------13~~------|
G|-14-10h12p10\9h10p9~~~~-12p10p9-----------|
D|------------------------------------------|
A|------------------------------------------|
E|------------------------------------------|

E|------------------------------------------|
B|---------------13~~----------------15b17--|
G|-10h12p10p9-10-------10h12p10p9-10--------|
D|------------------------------------------|
A|------------------------------------------|
E|------------------------------------------|

E|-15---------------------------------------|
B|----b17r15-13~~~b15~~---------------------|
G|------------------------------------------|
D|------------------------------------------|
A|------------------------------------------|
E|------------------------------------------|

Refrão:

(Continuação Solo)
E|------------------------------------------|
B|-----------5b6r5--------------------------|
G|---5-7-5---------5------------5-7---------|
D|-5-------7---------7--------------5h7-5~~-|
A|------------------------------------------|
E|------------------------------------------|

E|------------------------------------------|
B|-6b8r------b6r5---------------------------|
G|----------------5-----------------5h7~~---|
D|------------------7~~-----------5---------|
A|------------------------------------------|
E|------------------------------------------|

E|------------------------------------------|
B|-------------b6r5-------------------------|
G|---5h7p5----------5-----------------------|
D|-5-------7----------7~~-------------------|
A|------------------------------------------|
E|------------------------------------------|

E|------------------------------------------|
B|--------------------------------15--------|
G|----5/7--9--10--/12--14--16--17-----------|
D|-5----------------------------------------|
A|------------------------------------------|
E|------------------------------------------|


Solo – Segunda Parte:
E|---------------20-----------------20------|
B|-18~~---20b22------b22r20~~~~b22----------|
G|------------------------------------------|
D|------------------------------------------|
A|------------------------------------------|
E|------------------------------------------|

E|-------------18b20~~~---------------------|
B|-17b18-17~~-------------------------------|
G|------------------------------------------|
D|------------------------------------------|
A|------------------------------------------|
E|------------------------------------------|

E|----------------------15-17----15-------15|
B|-b18r17b18~--15-17-18-------18----17-18---|
G|------------------------------------------|
D|------------------------------------------|
A|------------------------------------------|
E|------------------------------------------|

E|-12b13--12----------------------------15--|
B|------------15b17r15--13-15-13----13------|
G|-------------------------------14---------|
D|------------------------------------------|
A|------------------------------------------|
E|------------------------------------------|

E|-----------------15-----------------15b17-|
B|-13--13~~-----13----13--13~~-----13-------|
G|-----------14-----------------14----------|
D|------------------------------------------|
A|------------------------------------------|
E|------------------------------------------|

E|-15~--13-15p13\12--13-12h13p12----12------|
B|-------------------------------15----15b17|
G|------------------------------------------|
D|------------------------------------------|
A|------------------------------------------|
E|------------------------------------------|

E|-15---------------------------------------|
B|----b17r15~--13~~-------------------------|
G|------------------------------------------|
D|------------------------------------------|
A|------------------------------------------|
E|------------------------------------------|
Composição de Axl Rose
Colaboração e revisão:
  • Caroline Leroy
  • João santos
  • Renan Medeiros
241.498 exibições
  • Simplificar cifra
    • ½ Tom
    • A
    • Bb
    • B
    • C
    • Db
    • D
    • Eb
    • E
    • F
    • F#
    • G
    • Ab
  • Adicionar à lista

    0 comentários

    Mostrar mais comentários

    Conseguiu tocar?

    21 Tocaram 6 Ainda não

    Grave um vídeo tocando November Rain e mande pra gente!

    00:00 / 00:00
    outros vídeos desta música
    repetir qualidade Automático
    Outros vídeos desta música
    00:00 / 00:00
    Automático
    OK