Cifra Club

Aprenda

November Rain

Guns N' Roses

Cifra: Versão 5 (violão e guitarra)
Tom: F
e|-----12-13--5----5-7-8--5-----5-7-8-7-5-3--5-----5-----------
B|------------5-6-8-------5-6-8--------------5-6-8---8----6----
G|------------5-----------5------------------5-----------------
D|------------------------------------------------------O------
A|------------8-----------7------------------5-----------------
E|--13---------------------------------------------------------
--

e|-----------------5-7-8------------5----------8-3-------------
B|----5-6-8-6-5-6--6----------5-6-5---8-6-5--5-----------------
G|--5--------------5--------7----------------5-----------------
D|--5---------------------0------------------5-----------------
A|--3----------------------------------------3-----------------
E|-------------------------------------------------------------

e|------3---------------------5---5-7-8-7-5-7---7-5------------
B|----5--3---5------3---5-----6-8-------------------8-6-5-3----
G|-------------5--------------5--------------------------------
D|-------------------------------------------------------------
A|--3------3------3---3---3-------------------7----------------
E|-------------------------------------------------------------

e|--5-----5--------8-----3-----------------------------5-5-5-5-
B|--5-5-8---8-6------8-----3----5---5----5----5--------5-5-5-5-
G|--5------------5--------------5---5----5----5----5---5-5-5-5-
D|---------------5---------------------------------5-----------
A|---------------3-----3------3---3----3----3----3-3-----------
E|-------------------------------------------------------------

e|----5-5-5-5-----------------5-5-7-8-5-5-5--------------------
B|----5-5-5-5-----6-6-5-5-3---5-5-----5-5-5-6--------4-6-3-----
G|----5-5-5-5-----5-5-5-5-5-5-5-5-----5-5-5--------------------
D|------------5-5----------------------------5-5-5-------------
A|--7---------3-3----------------------------3-3-3-3-----------
E|-------------------------------------------------------------

e|-------------------------------------------------------------
B|--5-6---5-5-3------------------------------------------------
G|------7-5-5-5-5----------------------------------------------
D|-------------------------------------------------------------
A|-------------------------------------------------------------
E|-------------------------------------------------------------

F                     Dm
When I look into your eyes
                 C           C4 C C9    
I can see a love restrained---uh yeah

F                       Dm      
But darlin' when i hold you
                           C     C4 C C9
Don't you know i fel the same|---uh yeah


Dm                  G    
Cause nothin' lasts forever
                             C
And we both know hearts can change
Dm                      G
And it's hard to hold a candle
                     C  
In the cold november rain

F                           Dm
We've been this such a long long time
                        C
Just tryin' to kill the pain
    F
But lovers always come and lovers always go
Dm                                       C  
And no one's really sure who's lettin'go today

Walking away

F
If we could take the time

to lay it on line
        Dm
I could rest my head
                           C
Just knowin' that you were mine

All mine

   Dm          G
So if you want love me 
                  C
then darlin don't refrain 
Dm                  G
Or I'll just end up walkin'
                     C
In the cold November Rain

       F                    G 
Do you need some time|--- on your own
       F                       G 
Do you need some time|--- on all alone|-- uh
       F                             G 
Everbody needs some time|--- on their own-- uh 
                   F                     G 
Don't you know you need some time|--- all alone

Em          F5             C5
I know it's hard to keep an open heart
Em        F5                  D5
Then even friends seem out to harm you

|---------------|
|-3-5-5br-3-----|
|-----------4br-|
|---------------|
|---------------|
|---------------|
Em               F5       C5
But if you could heal a broken heart
Em       F5             G5
Wouldn't time be out to charm you--- whoa--

solo guitarra 1

e|------------8-----------------------8-----------8~--------|  
B|-8b9-8b9r8b9-r8p6--8b9r8b9---8b9r8b9-r-5b6r5b6r---6p5b6r~-|  
D|----------------------------------------------------------|
G|----------------------------------------------------------|
A|----------------------------------------------------------|
E|----------------------------------------------------------|

e|-----------------------------8--------------8-8b9r-10b11r-|
B|---------8-------8b9-8b9r8b9---r8p6-8b9r8b9---------------|
D|-7p5-7/9---9/7-5------------------------------------------|
G|----------------------------------------------------------|
A|----------------------------------------------------------|
E|----------------------------------------------------------|

e|-8h10p8----8--------13p12---13p12---13b14r~--10-12-13-12--|
B|--------10--10/13~-------13------13-----------------------|
D|----------------------------------------------------------|
G|----------------------------------------------------------|
A|----------------------------------------------------------|
E|----------------------------------------------------------|

e|-10-13-12-13----13b14r-13-12-13-12-20~-(20)-(19)\(17)-(15)|
B|----------------------------------------------------------|
D|----------------------------------------------------------|
G|----------------------------------------------------------|
A|----------------------------------------------------------|
E|----------------------------------------------------------|

e|-13p12h13p12-10-12-13p12------12--------------------------|
B|-------------------------15p13--13-15h17p15-15-13p12h13p12|
D|----------------------------------------------------------|
G|----------------------------------------------------------|
A|----------------------------------------------------------|
E|----------------------------------------------------------|

e|----------------------------------------------------------|
B|------12---10---------------------13~------------13~------|
D|-14p12--12---10-12-10-9~--12p10\9-----10h12p10\9----------|
G|----------------------------------------------------------|
A|----------------------------------------------------------|
E|----------------------------------------------------------|

e|------------------15--------|-----------------------|
B|------------15b17----r15-13~|-14~--6-5-----------6b-|
D|-10h12p10\9-----------------|---------5---5h7-------|
G|----------------------------|----------7-----7-9----|
A|----------------------------|-----------------------|
E|----------------------------|-----------------------|
                  fim do solo1
            F                      G
Sometimes I need some time|---on my own
            F                      G
Sometimes I need some time|---all alone
          F      
Everybody needs some time|---
         G
on their own
                   F                      G
Don't you know you need some time|---all alone

solo guitarra 2

|---------------------------------20-----20--------19-----------------|
|-----------------------18~-20b21---r-20----18-17~----17brbr~---17-18-|
|-7-9-10-12-14-16-17-19---------------------------------------19------|
|---------------------------------------------------------------------|
|---------------------------------------------------------------------|
|---------------------------------------------------------------------|

|-15-17-13-15-12-13-10-12-10----------15-------------15---------------|
|----------------------------15br---13---13-13-13--13--13-13-13-------|
|---------------------------------14-------------14-------------------|
|---------------------------------------------------------------------|
|---------------------------------------------------------------------|
|---------------------------------------------------------------------|

|-----15br-15-13-12-12h13p12---12-15----------------------------------|
|---13-----------------------15-----15~-13----------------------------|
|-14------------------------------------------------------------------|
|---------------------------------------------------------------------|
|---------------------------------------------------------------------|
|---------------------------------------------------------------------|
                                fim do solo 2

F                   
And when your fears subside
Dm                C     C4 C C9
And shadows still remain
F                   Dm
I know that you can love me                    
                            C    C4 C C9
When there's no one left to blame             
Dm                 G
So never mind the darkness                      
                     C
We still can find a way
Dm                    G
'Cause nothin' lasts forever
                   C
Even cold November rain

guitarra 2x

C5 G/B A5 G5 F5 G5       C5 

pausa 

Guitarra

C5 G#5 A#5 4x

Base solo

C5 G5 F5 Eb5 G#5 A#5 C5 6X

C                       G
Don't ya think that you need somebody
F                       Eb
Don't ya think that you need someone
G#        A#
Everybody needs someone
C
You're not the only one
C
You're not the only one

solo guitarra 3

|-18br-18-19-20br-20-19-20-19-15---15-16~-15h16p15-15---15-15h16p15----|
|--------------------------------16-------------------18------------18-|
|----------------------------------------------------------------------|
|----------------------------------------------------------------------|
|----------------------------------------------------------------------|
|----------------------------------------------------------------------|
Composição de Axl Rose
Colaboração e revisão:
  • Gabriel Palma
  • Paulo Rocha
  • Fernando Carvalho
295.792 exibições
  • Simplificar cifra
    • ½ Tom
    • A
    • Bb
    • B
    • C
    • Db
    • D
    • Eb
    • E
    • F
    • F#
    • G
    • Ab
  • Adicionar à lista

    0 comentários

    Mostrar mais comentários
    00:00 / 00:00
    outros vídeos desta música
    repetir qualidade Automático
    Outros vídeos desta música
    00:00 / 00:00
    Automático
    OK