Cifra Club

Paradise City

Guns N' Roses

Cifra: Principal
exibições 679.834
Tom: F# (com acordes na forma de G) Afinação: Eb Ab Db Gb Bb Eb
Introdução – Guitarra 1 (amp Clean + Reverb e Chorus)

Introdução: Guitarra 1 - Parte 1
   G
E|-3----3-----3----3-----------------------
B|-0------0----------0---0-----------------
G|-0--------0----0-----0-------------------
D|-0---------------------------------------
A|-----------------------------------------
E|-3---------------------------------------

Guitarra 1 - Parte 2
   C
E|-3--------3-----3-----3------------------
B|-1----------1-----1-----1---1------------
G|-0------------0-----0-----0--------------
D|-0h2---2---------------------------------
A|-----3-----------------------------------
E|-----------------------------------------

Guitarra 1 - Parte 3
   F9               C
E|-3-------3--------3------3---------------
B|-1-----1---1---1--1----1---1---0---------
G|-0h2---------2----0----------0-----------
D|-0h3--------------0h2--------------------
A|----------------------3------------------
E|-----------------------------------------

Guitarra 1 - Parte 4
   G
E|-3---3-----3-----------------------------
B|-0-----0-----0------0---0----------------
G|-0-------0------0h2---0------0-----------
D|-0-----------------------0h2-------------
A|-----------------------------------------
E|-3---------------------------------------

Guitarra 1 - Parte 5
   F9     C      G
E|-3------3------3-------------------------
B|-1------1------0-------------------------
G|-2------0------0-------------------------
D|-3------2------0-------------------------
A|--------3------2-------------------------
E|---------------3-------------------------

Base antes do Solo (amp Drive + Reverb):
G C F9 C G

Guitarra 1 - Parte 6
   G   C    F9     C      G
E|-3---3----3------3------3----------------
B|-0---1----1------1------0----------------
G|-0---0----2------0------0----------------
D|-0---2----3------2------0----------------
A|-2---3-----------3------2----------------
E|-3----------------------3----------------

Solo da Introdução (amp Drive + Reverb + Chave na posição 3)

Guitarra 1 – Parte 1
                            H.A    H.A
E|---------------------------------------------------
B|------------------------15-------------------------
G|-x-x--------12-12-----------14b16--14b16r14p12-----
D|-x-x--12h14-------14-12------------------------14--
A|---------------------------------------------------
E|---------------------------------------------------

Guitarra 1 – Parte 2
                      H.A    H.A
E|---------------------------------------------------
B|-------------------15------------------------------
G|-------12-12----------14b16--14b16r14p12-----------
D|-12h14-------14-12-----------------------14--------
A|---------------------------------------------------
E|---------------------------------------------------

Guitarra 1 – Parte 3
E|---------------------------------------------------
B|-13b15--13b15r-13----------------------------------
G|------------------14b16r14p12----14b16~------------
D|------------------------------14-------------------
A|---------------------------------------------------
E|---------------------------------------------------

Guitarra 1 – Parte 4
                      H.A    H.A
E|---------------------------------------------------
B|-------------------15------------------------------
G|-------12-12----------14b16--14b16r14p12-----------
D|-12h14-------14-12-----------------------14--------
A|---------------------------------------------------
E|---------------------------------------------------

Guitarra 1 – Parte 5
                      H.A    H.A
E|---------------------------------------------------
B|-------------------15------------------------------
G|-------12-12----------14b16--14b16r14p12-----------
D|-12h14-------14-12-----------------------14--------
A|---------------------------------------------------
E|---------------------------------------------------

Guitarra 1 – Parte 6
E|-------------15------------------------------------
B|-13b15-13b15----15r13--12~~~~----------------------
G|---------------------------------------------------
D|---------------------------------------------------
A|---------------------------------------------------
E|---------------------------------------------------

Introdução – Guitarra 2 (amp Drive + Reverb)
G  C  F  C  G
↓ xx↓  xx↓ xx↓ xx↓

Riff 1 - Guitarra 1 (amp Drive + Reverb + Chave na Posição 1)

Parte 1:
E|---------------------------------------------------
B|---------------------------------------------------
G|---------------------------------------------------
D|---------------------------------------------------
A|---------------------------1b¼---------------------
E|-3--1-2-3--1-2--3-1-3-1-3--------------------------

Parte 2:
E|---------------------------------------------------
B|---------------------------------------------------
G|---------------------------------------------------
D|---------------------------------------------------
A|------------------------3--1b¼---------------------
E|-3--1-2-3--1-2--3-1-3-1----------------------------

Parte 3:
E|---------------------------------------------------
B|---------------------------------------------------
G|---------------------------------------------------
D|---------------------------------------------------
A|---------------------------1b¼---------------------
E|-3--1-2-3--1-2--3-1-3-1-3--------------------------

Parte 4:
E|---------------------------------------------------
B|---------------------------------------------------
G|---------------------------------------------------
D|---------------------------------------------------
A|-----------0-1-2-3b4~--3-1b¼-----------------------
E|-3--1-2-3------------------------------------------
                 A.H

Variação do Riff 1 Durante as Estrofes:

Guitarra 1:
Parte 1
 P.M. . .  . .  . . . . .
E|---------------------------------------------------
B|---------------------------------------------------
G|---------------------------------------------------
D|---------------------------------------------------
A|---------------------------1b¼---------------------
E|-3--1-2-3--1-2--3-1-3-1-3--------------------------

Parte 2
 P.M. . .  . .  . . . . .
E|---------------------------------------------------
B|---------------------------------------------------
G|---------------------------------------------------
D|---------------------------------------------------
A|------------------------3--1b¼---------------------
E|-3--1-2-3--1-2--3-1-3-1----------------------------

Parte 3
 P.M. . .  . .  . . . . .
E|---------------------------------------------------
B|---------------------------------------------------
G|---------------------------------------------------
D|---------------------------------------------------
A|---------------------------1b¼---------------------
E|-3--1-2-3--1-2--3-1-3-1-3--------------------------

Parte 4
 P.M. . .
E|---------------------------------------------------
B|---------------------------------------------------
G|---------------------------------------------------
D|---------------5-----------------------------------
A|---------------3--3b4r3p1-3p1----------------------
E|-3--1-2-3--1------------------1-3~/---\------------


Riff 1 – Guitarra 2 (amp Drive + Reverb + Chave na Poosição 1)

Parte 1:
E|---------------------------------------------------
B|---------------------------------------------------
G|---------------------------------------------------
D|---------------------------3b¼---------------------
A|-5--3-4-5--3-4--5-3-5-3-5--------------------------
E|---------------------------------------------------

Parte 2:
E|---------------------------------------------------
B|---------------------------------------------------
G|---------------------------------------------------
D|------------------------5--3b¼---------------------
A|-5--3-4-5--3-4--5-3-5-3----------------------------
E|---------------------------------------------------

Parte 3:
E|---------------------------------------------------
B|---------------------------------------------------
G|---------------------------------------------------
D|---------------------------3b¼---------------------
A|-5--3-4-5--3-4--5-3-5-3-5--------------------------
E|---------------------------------------------------

Parte 4:
E|---------------------------------------------------
B|---------------------------------------------------
G|---------------------------------------------------
D|----------------5-3b¼------------------------------
A|-5--3-4-5--5-3-------------------------------------
E|---------------------------------------------------

Variação do Riff 1 Durante as Estrofes:

Variações Riff 1 – Guitarra 2
Parte 1
 P.M. . .  . . . . . . .
E|---------------------------------------------------
B|---------------------------------------------------
G|--------------------------3b¼----------------------
D|-5--3-4-5--3-4-5-3-5-3-5---------------------------
A|---------------------------------------------------
E|---------------------------------------------------

Parte 2
 P.M. . .  . . . . . .
E|---------------------------------------------------
B|---------------------------------------------------
G|------------------------5-3b¼----------------------
D|-5--3-4-5--3-4-5-3-5-3-----------------------------
A|---------------------------------------------------
E|---------------------------------------------------

Parte 3
 P.M. . .  . . . . . . .
E|---------------------------------------------------
B|---------------------------------------------------
G|-------------------------3b¼-----------------------
D|-5--3-4-5--3-4-5-3-5-3-5---------------------------
A|---------------------------------------------------
E|---------------------------------------------------

Parte 4
  P.M. . .  .
E|---------------------------------------------------
B|---------------------------------------------------
G|--------------5~~--5b6r5p3-5p3---------------------
D|-5--3-4-5--3-------------------3-5~----------------
A|------------------------------------/--\-----------
E|------------------------------------/--\-----------

Solo 1 – Guitarra 1 (amp Drive + Reverb + Chave na Posição 2)

Parte 1:
E|---------------------------------------------------
B|---------------------------------------------------
G|----------3-3------5b6--3----5b6r5p3-------------
D|-3-x-x-5~-----5-3-----------5~---------5-----------
A|---------------------------------------------------
E|---------------------------------------------------

E|---------------------------------------------------
B|-----3-6-6~--6-6----------6b8r6/8~-----------------
G|-5b7-------------6r5--3-5--------------------------
D|---------------------------------------------------
A|---------------------------------------------------
E|---------------------------------------------------

Parte 2:
E|------5-8------------------------------------------
B|-8b10-----8b10r8-5-8------5-8----------------------
G|----------------------7b9-----7b9r7-5--------------
D|--------------------------------------7------------
A|---------------------------------------------------
E|---------------------------------------------------

E|---------------------------------------------------
B|---------------------------------------------------
G|--7-5----------------------------------------------
D|------7-5------------------------------------------
A|----------7-6-5-3-5b6r5-3--------------------------
E|--------------------------5------------------------

E|------3----------3----------3----------------------
B|--5b¼---5p3--5b¼---5p3--5b¼---5p3--5~--------------
G|--5b¼---5p3--5b¼---5p3--5b¼---5p3--5~--------------
D|---------------------------------------------------
A|---------------------------------------------------
E|---------------------------------------------------

Parte 3:
E|--------9----------9----------9-----------9--------
B|---------------------------------------------------
G|-10/11----11-10/11------10/11---11--10/11----------
D|---------------------------------------------------
A|---------------------------------------------------
E|---------------------------------------------------

E|-----7--------7---------7--------7-----------------
B|---------------------------------------------------
G|-8/9---9--8/9-------8/9---9--8/9-------------------
D|---------------------------------------------------
A|---------------------------------------------------
E|---------------------------------------------------

E|--------9----------9----------9-----------9--------
B|--------9----------9----------9-----------9--------
G|-10/11----11-10/11------10/11---11--10/11----------
D|---------------------------------------------------
A|---------------------------------------------------
E|---------------------------------------------------

E|-----7--------7---------7--------7-----------------
B|-----7--------7---------7--------7-----------------
G|-8/9---9--8/9-------8/9---9--8/9-------------------
D|---------------------------------------------------
A|---------------------------------------------------
E|---------------------------------------------------

E|-----7--------7---------6--------------------------
B|-----7--------7---------6--------------------------
G|-8/9---9--8/9-------6/7----------------------------
D|---------------------------------------------------
A|---------------------------------------------------
E|---------------------------------------------------


Início do Solo 1, Guitarra Grave (1 oitava abaixo)
(amp Drive + Reverb + Chave na Posição 1)

Solo 1 – Guitarra Oitavada:
E|---------------------------------------------------
B|---------------------------------------------------
G|---------------------------------------------------
D|---------------------------------------------------
A|----x-x-------1-1-----3b5-1b¼-1----3b4r3p1---------
E|-1--x-x--3--------3-1-----------3~---------3-------

E|---------------------------------------------------
B|---------------------------------------------------
G|---------------------------------------------------
D|----------------0-3-3~-3-3----------3b5r3/5~-------
A|-----------3b5--x------x---4r3--1-3----------------
E|----------------x------x---------------------------

Base do Solo 1 – Guitarra 2 (amp Drive + Reverb + have na Posição 1)

Parte 1:
   G5   F5
E|-----------------------------------------
B|-----------------------------------------
G|-----------------------------------------
D|-12--10----------------------------------
A|-10---8------\---------------------------
E|-------------\---------------------------

E|---------------------------------------------------
B|---------------------------------------------------
G|---------------------------------------------------
D|---------------------------------------------------
A|---------------------------1b¼---------------------
E|-3--1-2-3--1-2--3-1-3-1-3--------------------------

E|---------------------------------------------------
B|---------------------------------------------------
G|---------------------------------------------------
D|---------------------------------------------------
A|------------------------3--1b¼---------------------
E|-3--1-2-3--1-2--3-1-3-1----------------------------

E|---------------------------------------------------
B|---------------------------------------------------
G|---------------------------------------------------
D|--------------------------------------------------
A|---------------------------1b¼---------------------
E|-3--1-2-3--1-2--3-1-3-1-3--------------------------

E|---------------------------------------------------
B|---------------------------------------------------
G|---------------------------------------------------
D|---------------------------------------------------
A|------------------------3--1-----------------------
E|-3--1-2-3--1-2--3-1-3-1----------------------------

Parte 2:
E|---------------------------------------------------
B|---------------------------------------------------
G|---------------------------------------------------
D|---------------------------------------------------
A|---------------------------3b¼---------------------
E|-5--3-4-5--3-4--5-3-5-3-5--------------------------

E|---------------------------------------------------
B|---------------------------------------------------
G|---------------------------------------------------
D|---------------------------------------------------
A|------------------------5--3b¼---------------------
E|-5--3-4-5--3-4--5-3-5-3----------------------------

E|---------------------------------------------------
B|---------------------------------------------------
G|---------------------------------------------------
D|---------------------------------------------------
A|---------------------------1b¼---------------------
E|-3--1-2-3--1-2--3-1-3-1-3--------------------------

                 C5
E|---------------------------------------------------
B|---------------------------------------------------
G|---------------------------------------------------
D|---------------5-----------------------------------
A|-----------1---3-----------------------------------
E|-3--1-2-3------------------------------------------

Parte 3:
   D5
E|-----------------------------------------
B|-----------------------------------------
G|-----------------------------------------
D|-7-7-7-7-7-x-x-7-7-7-7-7-----------------
A|-5-5-5-5-5-x-x-5-5-5-5-5-----------------
E|-----------------------------------------

   C5
E|-----------------------------------------
B|-----------------------------------------
G|-----------------------------------------
D|-5-5-5-5-5-x-x-5-5-5-5-5-----------------
A|-3-3-3-3-3-x-x-3-3-3-3-3-----------------
E|-----------------------------------------
(repetir 3x)

    D5
E|-----------------------------------------
B|-----------------------------------------
G|-----------------------------------------
D|-7-7-7-7-7-x-x-7-7-7-7-7-----------------
A|-5-5-5-5-5-x-x-5-5-5-5-5-----------------
E|-----------------------------------------

   C5         Bb5
E|-----------------------------------------
B|-----------------------------------------
G|-----------------------------------------
D|-5----------3----------------------------
A|-3----------1------/---\-----------------
E|-------------------/---\-----------------

Riff 2 – Guitarra 1 (amp Drive + Reverb + Chave na Posição 2)

Parte 1:
E|---------------------------------------------------
B|---------------------------------------------------
G|--------------------------7~-----------------------
D|-9--7-8-9--7-8-9-7-9-7-9---------------------------
A|---------------------------------------------------
E|---------------------------------------------------

Parte 2:
E|---------------------------------------------------
B|---------------------------------------------------
G|------------------------7b9r7~---------------------
D|-9--7-8-9--7-8-9-7-9-7-----------------------------
A|---------------------------------------------------
E|---------------------------------------------------

Parte 3:
E|---------------------------------------------------
B|---------------------------------------------------
G|--------------------------7~-----------------------
D|-9--7-8-9--7-8-9-7-9-7-9------9--7-8-9\------------
A|---------------------------------------------------
E|---------------------------------------------------

Parte 4:
E|---------------------------------------------------
B|---------------------------------------------------
G|---------9--9b10r9--7-9p7--------------------------
D|---5--10------------------7-9~/14\-----------------
A|-7-------------------------------------------------
E|---------------------------------------------------

(Solo na Repetição do Refrão – Guitarra 1)
(amp Drive + Reverb + Chave na Posição 3)

Variações Solo Intro - Guitarra 1
Parte 1:
                            H.A    H.A
E|---------------------------------------------------
B|------------------------15-------------------------
G|-x-x--------12-12-----------14b16--14b16r14-12-----
D|-x-x--12h14-------14-12------------------------14--
A|---------------------------------------------------
E|---------------------------------------------------

Parte 2:
                      H.A    H.A
E|---------------------------------------------------
B|-------------------15------------------------------
G|-------12-12----------14b16--14b16r14p12-----------
D|-12h14-------14-12-----------------------14--------
A|---------------------------------------------------
E|---------------------------------------------------

Parte 3:
                 H.A
E|---------------------------------------------------
B|-13b15-13b15-13~-----------------------------------
G|-----------------14b16r14p12-----------------------
D|-----------------------------14--------------------
A|---------------------------------------------------
E|---------------------------------------------------

Parte 4:
E|---------------------------------------------------
B|-------15-------15-------15-------15---------------
G|-14b16----14b16----14b16----14b16----14b16r14-12---
D|-------------------------------------------------14
A|---------------------------------------------------
E|---------------------------------------------------

Parte 5:
                      H.A    H.A
E|---------------------------------------------------
B|-------------------15------------------------------
G|-------12-12----------14b16--14b16r14-12-----------
D|-12h14-------14-12-----------------------14--------
A|---------------------------------------------------
E|---------------------------------------------------

Parte 6:
E|-----------------------------15--------------------
B|-------13-13--13-------15b17----17r15-13~----------
G|-12b14-----------14-12-----------------------------
D|---------------------------------------------------
A|---------------------------------------------------
E|---------------------------------------------------

Parte 7:
E|-------13--12--------------------------------------
B|-------13--13--13r12~-0/-\--13r12~--0/--\----------
G|-13/14-----12---------0/-\----------0/--\----------
D|---------------------------------------------------
A|---------------------------------------------------
E|---------------------------------------------------

(Ponte Para Solo 2 – Guitarra 1)

Parte 1:
E|---------------------------------------------------
B|---------------------------------------------------
G|---------------------------3~----------------------
D|-5--3-4-5--3-4-5--3-5-3-5--------------------------
A|---------------------------------------------------
E|---------------------------------------------------

Parte 2:
E|---------------------------------------------------
B|---------------------------------------------------
G|-5—-3-4-5--3-4-5--3-5-3-5--3~----------------------
D|---------------------------------------------------
A|---------------------------------------------------
E|---------------------------------------------------

Parte 3:
E|---------------------------------------------------
B|---------------------------------------------------
G|---------------3/4/5--3-4-5-3-5--------------------
D|-3--1-2-3--1-3-------------------------------------
A|---------------------------------------------------
E|---------------------------------------------------

Parte 4:
E|---------------------------------------------------
B|---------------------------------------------------
G|-3b¼--------3---5p3-----3-3------------------------
D|-----5-3-5----5-----5-3-----5-3--------------------
A|---------------------------------------------------
E|---------------------------------------------------

Parte 5:
E|---------------------------------------------------
B|---------------------------------------------------
G|---------------------------3~----------------------
D|-5--3-4-5--3-4-5--3-5-3-5--------------------------
A|---------------------------------------------------
E|---------------------------------------------------

Parte 6:
E|---------------------------------------------------
B|---------------------------------------------------
G|-5—-3-4-5--3-4-5--3-5-3-5b7--3~--------------------
D|---------------------------------------------------
A|---------------------------------------------------
E|---------------------------------------------------

Solo 2 – Guitarra 1 (amp Drive + Reverb + Chave na Posição 2)

Parte 1:
E|---------------------------------------------------
B|-6-6/8-6-6-6/8--5b6r5p3--5b6r5p3--5b6r5p3--5b6r5p3-
G|-5-5/7-5-5-5/7--5bbr5p3--5b6r5p3--5b6r5p3--5b6r5p3-
D|---------------------------------------------------
A|---------------------------------------------------
E|---------------------------------------------------

E|---------------------------------------------------
B|-6~--5~--x-3b¼-------------------------------------
G|-5~--5~--x-3b¼--------3----5p3-----3-3-------------
D|---------------5-3-5~---5------5-3-----5\----------
A|---------------------------------------------------
E|---------------------------------------------------

Parte 2:
E|---------------------------------------------------
B|-----------15b18--15b18-15b18-15b18-15b18r15-------
G|-------12------------------------------------------
D|-11/14---------------------------------------------
A|---------------------------------------------------
E|---------------------------------------------------

E|---------------------------------------------------
B|-15-14-13--11-13-15--13h15p13p11--13-11h13p11\10---
G|---------------------------------------------------
D|---------------------------------------------------
A|---------------------------------------------------
E|---------------------------------------------------

E|---------------------------------------------------
B|-11----11h12p11----11------------------------------
G|----12----------12---------------------------------
D|---------------------------------------------------
A|---------------------------------------------------
E|---------------------------------------------------

E|----------15----------15--------------15-----------
B|-------15------18b20-----18p15--18b20----18p15-----
G|----15---------------------------------------------
D|-17------------------------------------------------
A|---------------------------------------------------
E|---------------------------------------------------

E|---------15-----------------15---------------------
B|--18b20-----18p15--------15----18p15---------------
G|-------------------17b19---------------------------
D|---------------------------------------------------
A|---------------------------------------------------
E|---------------------------------------------------

E|---------15--------------15--------18b21-----------
B|--18b20-----18p15--18b20----18p15------------------
G|---------------------------------------------------
D|---------------------------------------------------
A|---------------------------------------------------
E|---------------------------------------------------

Parte 3:
E|---------------------------------------------------
B|-8p6--------8p6--------8p6--------8p6--------------
G|-----7-5--------7-5--------7-5--------7-5----------
D|---------------------------------------------------
A|---------------------------------------------------
E|---------------------------------------------------

E|---------------------------------------------------
B|-8p6--------8p6--------8p6--------8p6--------------
G|-----7-5--------7-5--------7-5--------7-5----------
D|---------------------------------------------------
A|---------------------------------------------------
E|---------------------------------------------------

E|---------------------------------------------------
B|-8--11--10h11p10p8----8h11p8----8------------------
G|-------------------10--------10--------------------
D|---------------------------------------------------
A|---------------------------------------------------
E|---------------------------------------------------

E|---------------------------------------------------
B|------8--------------------------------------------
G|-9h10---10p9p7---------7--------6-------6----------
D|-----------------10b12---10b12----9b11----9b11-----
A|---------------------------------------------------
E|---------------------------------------------------

E|---------------------------------------------------
B|---------------------------------------------------
G|--6h7p6p5\3h5p3\2------3---5p3\2p0h2p0-------------
D|-------------------4/5---5-------------------------
A|---------------------------------------------------
E|---------------------------------------------------

E|---------------------------------------------------
B|---------------------------------------------------
G|-----0---------------------------------------------
D|-4/5-----------------------------------------------
A|--------5p4p3~~--1----3p1--------------------------
E|-------------------3------3--1--1b--2--------------

Parte 4:
E|---------------------------------------------------
B|---------------------------------------------------
G|---------------------------------------------------
D|-----------------------------3---5p3---------------
A|-------1----3/4\3p1------3/5---5-----5-3-----------
E|-2/3-3---3----------3-1----------------------------

E|---------------------------------------------------
B|-3b¼-------3b¼---3b¼--------3b¼---3b¼--------3b¼---
G|-3b¼-------3b¼---3b¼--------3b¼---3b¼--------3b¼---
D|-----5-5-5-----5-----5-5--5-----5-----5-5--5-----5-
A|---------------------------------------------------
E|---------------------------------------------------

E|---------3--------3--------3-------------3---------
B|-------3-3------3-3------3-3--6--------3-3--6------
G|-3/5b7------5b7------5b7------7r5--5b7------7r5----
D|---------------------------------------------------
A|---------------------------------------------------
E|---------------------------------------------------

E|-------3---------------3---------------------------
B|-----3-3--6----------3-3---------------------------
G|-5b7------7r5---5b7--------------------------------
D|---------------------------------------------------
A|---------------------------------------------------
E|---------------------------------------------------

Parte 5:
E|------3h6p3-----3-3h6p3----3h6p3-------------------
B|------------6-----------6--------6-----------------
G|---------------------------------------------------
D|---------------------------------------------------
A|---------------------------------------------------
E|---------------------------------------------------

E|-8b10r8p6---8p6-------10b12r-10-9-8-------8-9-10---
B|----------8-----8-6-----------------10b12----------
G|---------------------------------------------------
D|---------------------------------------------------
A|---------------------------------------------------
E|---------------------------------------------------

E|------------------------------------------------10-
B|-10b12r10--8---8--10---8--10---8--10---8--10b12----
G|-------------9-------9-------9-------9-------------
D|---------------------------------------------------
A|---------------------------------------------------
E|---------------------------------------------------

E|---------------------------------------------------
B|-10---8---10---8---10---8---10---8-----------------
G|----9--------9--------9--------9-------------------
D|---------------------------------------------------
A|---------------------------------------------------
E|---------------------------------------------------

Parte 6:
E|---------------------------------------------------
B|-10-8-10-11--10h11p10p8--10---8--------------------
G|----------------------------9----------------------
D|---------------------------------------------------
A|---------------------------------------------------
E|---------------------------------------------------

E|---------------------------------10h12-------------
B|-8h10h11p10p8h10h11/13--10h11h13-------13----------
G|---------------------------------------------------
D|---------------------------------------------------
A|---------------------------------------------------
E|---------------------------------------------------

E|-10h12h13/15-12h13h15-12h13h15/17-13h15h17-13h17/18
B|---------------------------------------------------
G|---------------------------------------------------
D|---------------------------------------------------
A|---------------------------------------------------
E|---------------------------------------------------

E|-15h18p15----15-------15---------------------------
B|----------18----18b20----18----15h18p15------------
G|----------------------------------------17---------
D|---------------------------------------------------
A|---------------------------------------------------
E|---------------------------------------------------

E|---------------------------------17b18-------------
B|-15h18p15--------15--18-18---------------17~-------
G|----------17b19------19-19r17p15-------------------
D|---------------------------------------------------
A|---------------------------------------------------
E|---------------------------------------------------

Parte 7:
E|-------------------13-13h15p13----15p13------------
B|----------13h15h17-------------17-------17-15------
G|-12h14h16------------------------------------------
D|---------------------------------------------------
A|---------------------------------------------------
E|---------------------------------------------------

E|-13------------------------------------------------
B|----17-15-13--17p15p13----15p13-------13-----------
G|-----------------------16-------16-14----16-15-12--
D|---------------------------------------------------
A|---------------------------------------------------
E|---------------------------------------------------

E|---------------------------------------------------
B|---------------------------------------------------
G|-16p14p12----14p12-------12------------------------
D|----------15-------15-14----15-14-12---------------
A|---------------------------------------------------
E|---------------------------------------------------

E|---------------------------------------------------
B|---------------------------------------------------
G|---------------------------------------------------
D|-15p14p12----14p12---------------------------------
A|----------15-------15-14-17p16p15----16-16p15----15
E|----------------------------------18----------18---

E|---------------------------------------------------
B|---------------------------------------------------
G|---------------------------------------------------
D|---------------------------------------------------
A|-----------15--------------15----------------------
E|-13h15h17---------13h15h17-------------------------

E|---------------------------------------------------
B|---------------------------------------------------
G|-----------------------------------------15-15-17--
D|---------------------15-15-16---15-16-17-----------
A|-15-16-17---15-16-17-------------------------------
E|---------------------------------------------------

E|------------------------------------------------15-
B|-------------------15-16-17------------15-16-17----
G|----------15-16-17-----------15-16-17--------------
D|-15-16-17------------------------------------------
A|---------------------------------------------------
E|---------------------------------------------------

E|-15------------------------------------------------
B|-18b20~\-------------------------------------------
G|---------------------------------------------------
D|---------------------------------------------------
A|---------------------------------------------------
E|---------------------------------------------------

Parte 8:
E|---------------------------------------------------
B|---------------------------------------------------
G|---------------------------------------------------
D|--3-4-5---3-4-5---3-4-5---3-4-5--------------------
A|---------------------------------------------------
E|---------------------------------------------------

E|---------------------------------------------------
B|---------------------------------------------------
G|---------------------------------------------------
D|--3-4-5---3-4-5---3-4-5---3-4-5--------------------
A|---------------------------------------------------
E|---------------------------------------------------

E|---------------------------------------------------
B|---------------------------------------------------
G|------------------3b---5-3-5b6-6r5-3-5---3b--------
D|--3-4-5--3-4-5--5----------------------5-----5~----
A|---------------------------------------------------
E|---------------------------------------------------

Parte 9:
E|-------------12------------------------------------
B|----------------15p12------------------------------
G|-12/14b16-16----------14b16-14-12----14----12------
D|----------------------------------14----14---------
A|---------------------------------------------------
E|---------------------------------------------------

E|---------------------------------------------------
B|------------------------------------15-------------
G|-12--14p12----12---14-12--14b16--16----16r14-12----
D|-----------12--------------------------------------
A|---------------------------------------------------
E|---------------------------------------------------

E|---------------------------------------------------
B|---------------------------------------------------
G|----14----12---------------------------------------
D|-14----14------------------------------------------
A|---------------------------------------------------
E|---------------------------------------------------

E|---------------------------------------------------
B|-------13--15--------13--15--------13--15----------
G|-14b16---------14b16---------14b16-----------------
D|---------------------------------------------------
A|---------------------------------------------------
E|---------------------------------------------------

E|---------------------------------------------------
B|-------13--15--------13--15------------------------
G|-14b16---------14b16-------------------------------
D|---------------------------------------------------
A|---------------------------------------------------
E|---------------------------------------------------

E|---------------------------------------------------
B|-------13-15p13---------13-15p13---------13-15p13--
G|-14b16------------14b16------------14b16-----------  (4x)
D|---------------------------------------------------
A|---------------------------------------------------
E|---------------------------------------------------

Parte 10:
E|---------------------------------------------------
B|-------13-15b16-15-13h15p13\12-----13--------------
G|-14b16--------------------------14----14-----------
D|---------------------------------------------------
A|---------------------------------------------------
E|---------------------------------------------------

E|---------------------------------------------------
B|-12h13p12-----12-----------------------------------
G|-----------14----14-15r14p12----14p12--------------
D|-----------------------------14-------14-12b14r12--
A|---------------------------------------------------
E|---------------------------------------------------

E|---------------------------------------------------
B|---------------------------------------------------
G|-5b6--5b6r5p3----5---3b4----3b4--------------------
D|---------------5---5------5------------------------
A|---------------------------------------------------
E|---------------------------------------------------

E|---------------------------------------------------
B|---------------------------------------------------
G|------------------------------3b4~-----------------
D|-5-3--------------------3/5~-------5\--------------
A|-----5-4-3b4r3--1-3-1-3----------------------------
E|---------------------------------------------------

Base do Solo 2 – Guitarra 2 (amp Drive + Reverb + Chave na Posição 2)

Parte 1:
E|--3----0-----3----0----3-----------------
B|--0----1-----1----1----0-----------------
G|--0----0-----2----0----0-----------------
D|--0----2-----3----2----0-----------------
A|--2----3----------3----2-----------------
E|--3--------------------3-----------------

Parte 2:
E|---------------------------------------------------
B|---------------------------------------------------
G|---------------------------------------------------
D|---------------------------------------------------
A|----------------------------1----------------------
E|--3--1-2-3--1-2--3-1-3-1-3-------------------------

Parte 3:
E|---------------------------------------------------
B|---------------------------------------------------
G|---------------------------------------------------
D|---------------------------------------------------
A|--3--1-2-3--1-2--3-1-3-1-3--1----------------------
E|---------------------------------------------------

Parte 4:
E|---------------------------------------------------
B|---------------------------------------------------
G|---------------------------------------------------
D|---------------------------------------------------
A|--6--4-5-6--4-6--1h2h3--1-2-3-1-3------------------
E|---------------------------------------------------

Parte 5:
E|---------------------------------------------------
B|---------------------------------------------------
G|---------------------------------------------------
D|---------------------------------------------------
A|-1b¼---------1----3p1------1-1---------------------
E|------3-1-3-----3------3-1-----3-1-----------------

Parte 6:
E|------------3----8---7-------------------
B|-10----5----0----8---8-------------------
G|-10----5----0----7---7-------------------
D|-10----5----0----------------------------
A|--8----3----2----------------------------
E|------------3----------------------------





Introdução:

Take me down to the paradise city
Where the grass is green and the girls are pretty
Take me home (oh, won't you please take me home?)
Take me down to the paradise city
Where the grass is green and the girls are pretty
Take me home (oh, won't you please take me home?)

(Solo intro)

Riff 1:
Just an urchin living under the street
I'm a hard case that's tough to beat
I'm your charity case so buy me something to eat
I'll pay you at another time
Take it to the end of the line
Rags to riches or so they say
You gotta keep pushing for the fortune and fame
You know it's, it's all a gamble when it's just a game
You treat it like a capital crime
Everybody's doing their time

(Repete o refrão)

Riff 1:
Strapped in the chair of the city's gas chamber
Why I'm here, I can't quite remember
The surgeon general says it's hazardous to breathe
I'd have another cigarette but I can't see
Tell me who ya gonna believe
Refrão
Take me down to the paradise city
Where the grass is green and the girls are pretty
Take me home, yeah, yeah
Take me down to the paradise city
Where the grass is green and the girls are pretty
Oh, won't you please take me home, yeah?

(Solo 1)

So far away, so far away
So far away, so far away

Riff 2:
Captain America's been torn apart
Now he's a court jester with a broken heart
He said, turn me around and take me back to the start
I must be losing my mind, are you blind?
I've seen it all a million times

(Repete o refrão)

Variações solo intro:
Take me down to the paradise city
Where the grass is green and the girls are pretty
Take me home, yeah, yeah!
Take me down to the paradise city
Where the grass is green and the girls are pretty
Oh, won't you please take me home, home

(Ponte para o solo 2)

Solo 2:
Oh, I want to go, I want to know
Oh, won't you please take me home?
I want to see how good it can be
Oh, won't you please take me home?
Take me down to the paradise city
Where the grass is green and the girls are pretty
Take me home
Take me down to the paradise city
Where the grass is green and the girls are pretty
Oh, won't you please take me home?
Take me down, take me down
Oh, won't you please take me home?
I want to see how good it can be
Oh, won't you please take me home?
I want to see how good it can be
Oh, oh take me home
Take me down to the paradise city
Where the grass is green and the girls are pretty
Oh, won't you please take me home?
I want to know, I want to know
Oh, won't you please take me home?
Yeah, baby!
Acordes para:

    0 comentários

      mostrar mais comentários

      Conseguiu tocar?

      99tocaram4ainda não

      Grave um vídeo tocando Paradise City e mande pra gente!

      00:00 / 00:00
      outros vídeos desta música
      repetirqualidadeautomática
      Outro vídeos desta música
        00:00 / 00:00
        automática
        Capítulos
        • Início
        • Afinação
        • Configuração dos Efeitos
        • Dicas para Chave Seletora
        • Tocando a música
        • Acordes da Introdução
        • Tocando Introdução
        • Ensinando Introdução (Guitarra 1)
        • Ensinando Solo da Introdução
        • Acordes da Introdução (Guitarra 2)
        • Tocando Base do Solo de Introdução
        • Ensinando Base do Solo de Introdução
        • Tocando Primeira Parte e Refrão (Guitarra 1)
        • Ensinando Riff 1 (Guitarra 1)
        • Ensinando Riff 1 (Guitarra 2)
        • Tocando Primeira Parte e Refrão (Guitarra 2)
        • Tocando Solo 1 (Guitarra 1)
        • Ensinando Solo 1 (Guitarra 1)
        • Ensinando Solo 1 (Guitarra 2)
        • Acordes da Base do Solo 1
        • Tocando Base do Solo 1
        • Ensinando Base do Solo 1
        • Tocando Riff 2
        • Ensinando Riff 2 (Guitarra 1)
        • Tocando Refrão
        • Ensinando Variação do Solo da Introdução
        • Tocando Ponte
        • Ensinando Ponte (Guitarra 1)
        • Tocando Solo Final
        • Ensinando Solo Final (Parte 1)
        • Ensinando Solo Final (Parte 2)
        • Ensinando Solo Final (Parte 3)
        • Ensinando Solo Final (Parte 4)
        • Ensinando Solo Final (Parte 5)
        • Ensinando Solo Final (Parte 6)
        • Ensinando Solo Final (Parte 7)
        • Ensinando Solo Final (Parte 8)
        • Ensinando Solo Final (Parte 9)
        • Ensinando Solo Final (Parte 10)
        • Tocando Base do Solo Final
        • Ensinando Base do Solo Final
        OK