Cifra Club

Aprenda

Patience

Guns N' Roses

Tab de baixo: Versão 2
Intro

Gb|-----------------------------------------------------------|
Db|------------------------------------------7---7-9-7--------|
Ab|-------------------------3-4-5------5-5/9-----------7-5-3--|
Eb|--------3---0--3--5----5-----------------------------------|


Gb|-----------------------------------------------------------------------|
Db|------------------------------------------------------7-9-7-9----------|
Ab|--3-3-----------------------------------3-4-5---5-5/9---------9--5--3--|
Eb|------------3-3--------3---5--5-------5--------------------------------|


Gb|------------------------------------------------------|
Db|------------------------------------------------------|
Ab|--3-3-3-3-3------------------3-3-3-3-3----------------|
Eb|----------------3-3-3-3-3---------------0-0-0-0-0-----|


Gb|-------------------------------------------------------------------|
Db|---------------------------------------------------10-11-12--12-12-|
Ab|--3-3-3-3-3-----------------3-4-5--------------12------------------|
Eb|----------------3-3-3-3---5----------------------------------------|


Verse

Gb|---------------------------------------------------------------------------------------------------|
Db|---------------------------------------------------------------------------------7---7-9-7---------|
Ab|--3---3---3---3---3------------------------------------------------5--5----5-5/9-----------7-5-3---|
Eb|----------------------3---3---3---3---3------5---5---5---5---5-------------------------------------|

Pre Chorus

Gb|----------------------------------------------------------------------------|
Db|-----------------------------------------------------------7-9-7-9----------|
Ab|--3-3-3-3-----------------------------------3-4-5----5-5/9---------9--5--3--|
Eb|------------3-3-3-3------3--5-5-5-5-------5-----------------------
Chorus

Gb|------------------------------------------------------|
Db|------------------------------------------------------|
Ab|--3-3-3-3-3------------------3-3-3-3-3----------------|
Eb|----------------3-3-3-3-3---------------0-0-0-0-0-----|

Gb------------------------------------------------------------------|
Db|---------------------------------------------------7---7-9-7----
Ab|--3-3-3-3-3----------------3-4-5-5-5-5-5-5-5-5-5/9-----------7-5-3
Eb|-------------3-3-3-3-3---5----------------------------------------

Gb|------------------------------------------------------|
Db|------------------------------------------------------|
Ab|--3-3-3-3-3------------------3-3-3-3-3----------------|
Eb|----------------3-3-3-3-3---------------0-0-0-0-0-----|

\"All we need is just a little patience\"                \"(inhale) Patience...\"
Gb|-------------------------------------------------------------------------|
Db|-------------------------------------------------------------------------|
Ab|--3-3-3-3-3--------------3-4-5-5-5-5-5-5----3h4h5-5555555---5-5-5-5-5-5--|
Eb|-------------3-3-3-3-3---------------------------------------------------|

             \"(inhale) Patience...\"   \"patience\"            \"`Patience..\"
Gb|-------------------------------------------------------------------------
Db|-----------------------------------------------------------10-11-12-12-12-11-10--5--
Ab|--3h4h5-5555555-5-5-5-5-5-5--5-5-5-5-5-5-5-5-5-5-5-5-5-5-5-------------------
Eb|------------------------------------------------------------------------------

- Verse
- Pre Chorus
- Chorus

Guitar solo

Gb|----------------------------------------------------|
Db|----------------------------------------------------|
Ab|--3-3-3-3-3-3--------------3-3-3-3-3-3--------------|
Eb|---------------3-3-3-3-3-3-------------0-0-0-0-0-0--|

Gb|--------------------------------------------------|
Db|--------------------------------------------------|
Ab|--3-3-3-3-3-3------------------3-4-5-5-5-5-5-5-5--|
Eb|---------------3-3-3-3-3----5---------------------|

Gb|-----------------------------------------------------|
Db|-----------------------------------------------------|
Ab|--3-3-3-3-3-3--------------3-3-3-3-3-3---------------|
Eb|---------------3-3-3-3-3-3--------------0-0-0-0-0-0--|

Gb|---------------------------------------------------|
Db|---------------------------------------------------|
Ab|--3-3-3-3-3-3------------------3-4-5-5-5-5-5-5-5---|
Eb|---------------3-3-3-3-3----5----------------------|

Gb|-----------------------------|
Db|-----------------------------| X3
Ab|------3-4-5-5-5-5-5-5-5-5----|
Eb|---5-------------------------|

Gb|--------------|
Db|--------------|X1
Ab|------3-4-5---|
Eb|---5----------|

Outro :

Only guitar (D,G)

Gb|-----------------------|
Db|---0-14-15-16---12-----|
Ab|-----------------------|
Eb|-----------------------|

Gb|---------------------------|
Db|---------3-4-555-4-3-5-2---| 
Ab|---------------------------|
Eb|---------------------------|

\"mmmm yeahhhh....yeahhhh..... oh yeahhhh\"
Gb|--------------------------------------------------------------|
Db|--------------------------------------------3-4-555-4-3-5-2---|X1
Ab|-5-5-5-5-5-5-5-5-5-5-5-5--------------------------------------|
Eb|--------------------------3-3-3-3-3-3-3-3-3-3-----------------|
\"Just a little Patience\"
Gb|------------------------------------------------|
Db|------------------------------------------------|X1
Ab|-5-5-5-5-5-5-5-5-5-5-5-5------------------------|
Eb|--------------------------3-3-3-3-3-3-3-3-3-3---|

\"Just a little patience, mm yeah, ooh yeah\"
Gb|--------------------------------------------------------------|
Db|--------------------------------------------3-4-555-4-3-5-2---| X1
Ab|-5-5-5-5-5-5-5-5-5-5-5-5--------------------------------------|
Eb|--------------------------3-3-3-3-3-3-3-3-3-3-----------------|

Gb|------------------------------------------------|
Db|------------------------------------------------|X5
Ab|-5-5-5-5-5-5-5-5-5-5-5-5------------------------|
Eb|--------------------------3-3-3-3-3-3-3-3-3-3---|

End
\"oahhhhhhhhhhhh i need you yeahhh i need youuuu this timeeeeeeeeeee\"
Gb|---------------------------------------------------------|
Db|----------------------------------3-4-555-4-3-5-2--------|
Ab|---------------------------------------------------5-----|
Eb|-1-1-1-1-1-1-1-1-1---3-3-3-3-3-3-------------------------|
Composição de Axl Rose / Duff McKagan / Izzy Stradlin / Slash / Steven Adler
Colaboração e revisão:
  • Hector rigon
11.066 exibições

0 comentários

Ver todos os comentários
00:00 / 00:00
Outros vídeos desta música
Repetir Qualidade Automático
Outros vídeos desta música
00:00 / 00:00
Automático

Cifra Club Pro

Aproveite o Cifra Club com benefícios exclusivos e sem anúncios
Cifra Club Pro
Aproveite o Cifra Club com benefícios exclusivos e sem anúncios
OK