Cifra Club

Sweet Child O' Mine

Guns N' Roses

Tab de baixo: Principal
Intro:
Gb|--------11----11-12-14-16-14p12-11----------12-----|
Db|-----12----12----------------------12----10----10--|
Ab|-/12----------------------------------12-----------|
Eb|---------------------------------------------------|

Gb|--10-9----10-9-------------12-----12p11-12-11------|
Db|-------10-----10-9----/12----/12--------------12---|
Ab|-------------------10------------------------------|
Eb|---------------------------------------------------|

Gb|---------------------------------------------------|
Db|---------------------------------------------------|
Ab|---------------------------------------------------|
Eb|-0-12\---------------------------------------------|

Gb|---------------------------------------------------|
Db|----------------7-----------------3-2-0------------|
Ab|-5-5-5-5-5-5-/9---9-0-3-3-3-3-3-3-------2----------|
Eb|------------------------------------------3-3-3----|

Gb|---------------------------------------------------|
Db|-------3-4-5------------------7-----5-4------------|
Ab|-------------0-3-4-5-5-5-5-/9---0-5----------------|
Eb|-3-3-0---------------------------------------------|

Primeira parte:
Gb|---------------------------------------------------|
Db|---------------------------------------------------|
Ab|-5-5-5-5-5-5-5-0-2-3-3-3-3-3-3-3-3-2-0-------------|
Eb|---------------------------------------3-3-3-3-3-3-|

Gb|-----------------7---------------------------------|
Db|---5-------------------5-4-------------------------|
Ab|-----3-5-5-5-5-5---0-5-----------------------------|
Eb|-3-------------------------------------------------|

Gb|---------------------------------------------------|
Db|---------------------------------------------------|
Ab|-5-5-5-5-5-5-5-0-2-3-3-3-3-3-----------------------|
Eb|-----------------------------0-0-0-1-1-2-2---------|

Gb|---------------------------------------------------|
Db|---------------------------10-11-12-12-12-12-12----|
Ab|-----------------3-4-5-5-5-------------------------|
Eb|-3-3-3-3-3-3-3-0-----------------------------------|

Gb|---------------------------------------------------|
Db|---------------------------------------------------|
Ab|---------------------------------------------------|
Eb|-0-12\---------------------------------------------|

She's got a smile that it seems to me
Reminds me of childhood memories
Where everything was as fresh
As the bright blue sky

Now and then when I see her face
She takes me away to that special place
And if I stare too long
I'd probably break down and cry

Refrão:
Gb|---------------------------------------------------|
Db|-----------------------------7-5-4-----------------|
Ab|-0-0-0-2-3-3-3-0-5-5-5-5-5-5-------5---------------|
Eb|---------------------------------------------------|

Gb|---------------------------------------------------|
Db|---------------------10-11-12-12-12-12-12----------|
Ab|-0-0-0-2-3-3-3-5-5-5-------------------------------|
Eb|------------------------------------------0-12\----|

(...)
Ohh! Ohh! Sweet child o' mine
Ohh! Ohh! Sweet love of' mine

Interlúdio 1:
Gb|---------------7---------------5-------5-----------|
Db|---------------------------------------------------|
Ab|-5-5-5-5-5-5-5---5-0-3-3-3-3-3---3-0-3---3-0-------|
Eb|---------------------------------------------------|

Gb|-------------------------------7------------------|
Db|-------------------------------------5-4----------|
Ab|-------------3-0-4-0-5-5-5-5-5---5-0--------------|
Eb|-3-3-3-3-3-0--------------------------------------|

Segunda parte:
Gb|---------------------------------------------------|
Db|-----------------------------5-3-2-0---------------|
Ab|-5-5-5-5-5-5-5-5-3-3-3-3-3-3-----------------------|
Eb|---------------------------------------------------|

Gb|---------------------------7-----7---7-------------|
Db|---------------------------------------------------|
Ab|---------------3-5-5-5-5-5---5-5---5---5-----------|
Eb|-3-3-3-3-3-3-3-------------------------------------|

Gb|---------------------------------------------------|
Db|---------------------------------------------------|
Ab|-5-5-5-5-5-5-5-5-3-3-3-3-3-------------------------|
Eb|---------------------------0-0-0-1-1-2-2-3-3-3-----|

Gb|---------------------------------------------------|
Db|-------3-4-5-------------10-11-12-12-12-12-12------|
Ab|-------------0-3-4-5-5-5---------------------------|
Eb|-3-3-0---------------------------------------------|

Gb|---------------------------------------------------|
Db|---------------------------------------------------|
Ab|---------------------------------------------------|
Eb|-0-12\---------------------------------------------|

(...)
She's got eyes of the bluest skies
As if they thought of rain
I hate to look into those eyes
And see an ounce of pain

Her hair reminds me of a warm safe place
Where as a child I'd hide
And pray for the thunder and the rain
To quietly pass me by

Primeira repetição do refrão:
Gb|-------------------------------7-------------------|
Db|---------------------------------------------------|
Ab|-0-0-0-2-3-3-3-0-5-5-5-5-5-5-5---5-7---------------|
Eb|---------------------------------------------------|

Gb|-----------------------7---7-----7-7---------------|
Db|---------------------5---0---7-0-------------------|
Ab|-0-0-0-2-3-3-3-5-5-5-------------------------------|
Eb|---------------------------------------------------|

(...)
Ohh! Ohh! Sweet child o' mine
Ohh! Ohh! Sweet love of mine

Interlúdio 2:
Gb|---------------------------------------------------|
Db|---------------------------2-2-2-3-3-4-------------|
Ab|-5-5-5-5-5-5-5-2-3-3-3-3-3-------------------------|
Eb|---------------------------------------0-3-3-3-----|

Gb|---------------------------------------------------|
Db|-------3-4-5------------------7-0-0-5-4------------|
Ab|-------------0-3-4-5-5-5-5-/9----------------------|
Eb|-3-3-0---------------------------------------------|

Gb|---------------------------------------------------|
Db|---------------------------------------------------|
Ab|-5-5-5-5-5-5-5-0-2-3-3-3-3-3-3-3-2-2-0-------------|
Eb|---------------------------------------3-3-3-------|

Gb|---------------------------------------------------|
Db|-------3-4-5-----------------12-12-12-12-12-12-----|
Ab|-------------0-3-4-5-5-5-5-0-----------------------|
Eb|-3-3-0-----------------------------------------12\-|

Segunda repetição do refrão:
Gb|---------------------------------------------------|
Db|---------------------------7-7-7-7-5-4-------------|
Ab|-0-0-0-2-3-3-3-0-5-5-5-5-5-------------5-----------|
Eb|---------------------------------------------------|

Gb|---------------------------------------------------|
Db|---------------------------------------------------|
Ab|-0-0-0-2-3-3-3-5-5-5-5-5---------------------------|
Eb|-------------------------0-2-0-3-0-4-0-------------|

Gb|---------------------------7-----7---7-------------|
Db|---------------------------------------------------|
Ab|-0-0-0-2-3-3-3-0-5-5-5-5-5---5-5---5---5-----------|
Eb|---------------------------------------------------|

Gb|---------------------------------------------------|
Db|---------------------------------------------------|
Ab|-0-0-0-2-3-3-3-5-5-5-5-5-5-5-5-5-5-5-5-5-5-5-5-6---|
Eb|---------------------------------------------------|

(...)
Ohh! Ohh! Sweet child o' mine
Ohh! Ohh! Sweet child of mine

Ohh! Ohh! Sweet child o' mine
Ohh! Ohh! Sweet child o' mine

Solo de guitarra:
Gb|---------5-----4-----2-----------------------------|
Db|---2-----------------------------------------------|
Ab|-------3---3-2---2-0-------------------------------| (3x)
Eb|-0---0-----------------0-2-3-----------------------|

Gb|---------5-----4-----------------------------------|
Db|---2-----------------5h7-7-7-7-7-7-5---------------|
Ab|-------3---3-2---2-0-----------------7-5-----------|
Eb|-0---0---------------------------------------------|

Gb|---------------------------------------------------|
Db|---2-------5---------------------------------------|
Ab|-------------------3-3-3-3-5-----------------------| (4x)
Eb|-0---0-2-3---3-5-5-----------3---------------------|

Terceira parte:
Gb|---------------------------------------------------|
Db|---------------------------------------------------|
Ab|---------------3-3-3-5-----------------3-3-3-5-----|
Eb|-0-0-2-3-3-5-5---------3-0-0-2-3-3-5-5---------3---|

Gb|---------------------------------------------------|
Db|---------------------------------------------------|
Ab|---------------3-3-3-3-5---------------------------|
Eb|-0-0-2-3-3-5-5-----------3-------------------------|

Gb|---------------------------------------------------|
Db|---------------------------------------------------|
Ab|-------------------------------------5-7-7-7-7-5-7-|
Eb|-0-0-0-0-0-3-3-3-3-3-5-5-5-5-5-5-5-5---------------|

Gb|---------------------------------------------------|
Db|------------5--------------------------------------|
Ab|---7\-----------------3-3-3-3-5--------------------| (2X)
Eb|-0----0-2-3---3-0-5-5-----------3------------------|

Gb|---------------------------------------------------|
Db|------------5--------------------------------------|
Ab|---7\-----------------7-5--------------------------|
Eb|-0----0-2-3---3-0-5-5-----7-6-5-3------------------|

Gb|---------------------------------------------------|
Db|------------5--------------------------------------|
Ab|---7\---------------3-5----------------------------|
Eb|-0----0-2-3---3-0-5-----0--------------------------|

(...)
Where do we go
Where do we go now
Where do we go
Where do we go
Where do we go now
Where do we go now
Where do we go (sweet child)
Where do we go now
Where do we go now
Where do we go
Where do we go now
Where do we go
Where do we go now
Where do we go
Where do we go now, now, now, now, now, now, now, now
Sweet child
Sweet child o' mine
exibições 599.636

0 comentários

mostrar mais comentários
00:00 / 00:00
outros vídeos desta música
repetir qualidade Automático
Outros vídeos desta música
00:00 / 00:00
Automático
OK