Cifra Club

Aprenda

The Garden

Guns N' Roses

Tab de baixo: Principal
G: -9/10--11-/7-7-5-------
D: -----------------7-4---
A: ---------------------5-
E: -----------------------

G: ----------------------------------------
D: -----4---------3---------3---------4----
A: -3-0---5---3-0---5---3-0---5---3-0---5--
E: ----------------------------------------

"You know you're all alone..."
repeat 3 times:
G: -------------------------------------------------------------------
D: -----4----------------3----------------3----------------4----------
A: -3-0---5--5-5-5---3-0---5--5-5-5---3-0---5--5-5-5---3-0---5--5-5-5-
E: -------------------------------------------------------------------

G: ----11-12-11----11-12-11----11-12-11----11-12-11----11-12-11----11-12-11-
D: -12----------12----------10----------10----------9-----------9-----------
A: -------------------------------------------------------------------------
E: -------------------------------------------------------------------------

G: ----11-12-11----11-12-11-
D: -12----------12----------
A: -------------------------
E: -------------------------

G: ----11-12-11----11-12-11----11-12-11----11-12-11----11-12-11----11-12-11-
D: -12----------12----------10----------10----------9-----------9-----------
A: -------------------------------------------------------------------------
E: -------------------------------------------------------------------------

G: ----11-12-11----11-----
D: -12----------12----12/-
A: -----------------------
E: -----------------------

repeat 4 times:
G: --------------------
D: --------2/3-2-2-----
A: -/5-5-----------3-3-
E: ------1-------------

G: ----11-12-11----11-12-11----11-12-11----11-12-11----11-12-11----11-12-11-
D: -12----------12----------10----------10----------9-----------9-----------
A: -------------------------------------------------------------------------
E: -------------------------------------------------------------------------

G: ----11-12-11----11-12-11-
D: -12----------12----------
A: -------------------------
E: -------------------------

G: ----11-12-11----11-12-11----11-12-11----11-12-11----11-12-11----11-12-11-
D: -12----------12----------10----------10----------9-----------9-----------
A: -------------------------------------------------------------------------
E: -------------------------------------------------------------------------

G: ----11-12-11----11-----
D: -12----------12----12/-
A: -----------------------
E: -----------------------

repeat 6 times:
G: --------------------
D: --------2/3-2-2-----
A: -/5-5-----------3-3-
E: ------1-------------

G: ----------------------------------------------
D: -0--10-9--12-10---12-10----10---12-10---------
A: ------------------------12------------12-10-5-
E: ----------------------------------------------


_______________________________________________________
Contribuição: luiz eduardo saragozo de freitas(luizeduardosf@bol.com.br)
Composição de Axl Rose / Del James / West Arkeen
6.414 exibições

0 comentários

Mostrar mais comentários

Conseguiu tocar?

0 Tocaram 0 Ainda não

Grave um vídeo tocando The Garden e mande pra gente!

00:00 / 00:00
outros vídeos desta música
repetir qualidade Automático
Outros vídeos desta música
00:00 / 00:00
Automático

Cifra Club Pro

Aproveite o Cifra Club com benefícios exclusivos e sem anúncios
7 dias grátis
Cifra Club Pro
Aproveite o Cifra Club com benefícios exclusivos e sem anúncios
7 dias grátis
OK