Cifra Club

The Godfather

Guns N' Roses

Cifra: Principal
exibições 280.254
Tom: F#
Parte 1:

E|-----------------------------------------------------------|
B|-15~--14-15-16--15-15---------15~--14-15-16--15-15---------|
G|----------------------15~--------------------------14~-----|
D|-----------------------------------------------------------|
A|-----------------------------------------------------------|
E|-----------------------------------------------------------|


Parte 2:

E|-----------------------------------------------------------|
B|-15~--14-15-18--15-14----15br------15br--------------------|
G|------------------------------15br------14~----------------|
D|-----------------------------------------------------------|
A|-----------------------------------------------------------|
E|-----------------------------------------------------------|


Parte 3:

E|----10-13-12r13-10-13-10-12-10-------------------------------------|
B|-10-------------------------11-13-10~---------------------------|
G|----------------------------------------------------------------|
D|----------------------------------------------------------------|
A|----------------------------------------------------------------|
E|----------------------------------------------------------------|


Parte 4:

E|----10-13-12r13-10-13-10-12-10-------------------------------------|
B|-10-------------------------9-8-7~------------------------------|
G|----------------------------------------------------------------|
D|----------------------------------------------------------------|
A|----------------------------------------------------------------|
E|----------------------------------------------------------------|


Parte 5:

E|-----------------5-8-8br----------------------------------------|
B|----5-9-9br----7------------10-11-10-13-10-11-10---10-----------|
G|--6---------------------------------------------------11--6-7~--|
D|----------------------------------------------------------------|
A|----------------------------------------------------------------|
E|----------------------------------------------------------------|


Parte 6:

E|-10-10-9-8~--10/12-10------------------------------------10~---|
B|-----------------------11-10~-10-13-10-8--8-11-9-10~--10-------|
G|---------------------------------------------------------------|
D|---------------------------------------------------------------|
A|---------------------------------------------------------------|
E|---------------------------------------------------------------|


Parte 7:

E|-13^12^10-13^12^10-13^12^10-------------------------------------|
B|----------------------------12--12--12-12-10-12-10-9-10-12-10-9-|
G|----------------------------------------------------------------|
D|----------------------------------------------------------------|
A|----------------------------------------------------------------|
E|----------------------------------------------------------------|


Parte 8:

E|-13-12-10-9-10--12-10-9----9------------------------------------|
B|------------------------10---10-12-10-9----9----12--------------|
G|----------------------------------------11---11----11-9----9----|
D|--------------------------------------------------------11---11-|
A|----------------------------------------------------------------|
E|----------------------------------------------------------------|


Parte 9:

E|-----------------------------9-10~------------------------------|
B|-------13-11-10-13-11-10-10~------------------------------------|
G|----10----------------------------------------------------------|
D|-12-------------------------------------------------------------|
A|----------------------------------------------------------------|
E|----------------------------------------------------------------|

0 comentários

    mostrar mais comentários

    Conseguiu tocar?

    75tocaram1ainda não

    Grave um vídeo tocando The Godfather e mande pra gente!

    00:00 / 00:00
    outros vídeos desta música
    repetirqualidadeautomática
    Outro vídeos desta música
      00:00 / 00:00
      automática
      OK