Cifra Club

Welcome To The Jungle

Guns N' Roses

Cifra: Principal (violão e guitarra)
tom: Ab (forma dos acordes no tom de A) Afinação: Eb Ab Db Gb Bb Eb
Introdução – Parte 1:

(Guitarra 1)

  P.M. . . . . . . . . . . . . . .
E|-----------------------------------------------------|
B|-----------------------------------------------------|
G|-4-4-4-2-4-2---4-----4-------------------------------|
D|-------------4---4-2---2-0-0-------------------------|
A|-----------------------------2-2---------------------|
E|-----------------------------------------------------|

            P.M. . . . . . . . . . . . . . .
E|-----------------------------------------------------|
B|-3---------------------------------------------------|
G|-2----2----------------------------------------------|
D|-0----2----4-4-4-4-4-4-4-4-4-4-4-4-4-4-4-4-----------|
A|------0----2-2-2-2-2-2-2-2-2-2-2-2-2-2-2-2-----------|
E|-----------------------------------------------------|

(Guitarra 2)

E|-----------------------------------------------------|
B|-----------------------------------------------------|
G|--------7-9-9b11r9-7~--------------------------------|
D|-7h9~--------------------7h9~---9\-2~----------------|
A|-----------------------------------------------------|
E|-----------------------------------------------------|

E|-7----5----0-----------------------------------------|
B|-7----5----0-----------------------------------------|
G|-4----2----9----7------------------------------------|
D|-----------9----7----7-------------------------------|
A|-----------7----5----7-------------------------------|
E|---------------------5-------------------------------|

E|-----------------------------------------------------|
B|------------------10------10-------------------------|
G|--------------7-9--9b11--b11r9--7~-------------------|
D|----------7h9----------------------x\----------------|
A|------7-9--------------------------x\----------------|
E|-7h10------------------------------x\----------------|

(Guitarra 3)

E|-----------------------------------------------------|
B|-----------------------------------------------------|
G|-----------------------------------------------------|
D|-9----7----5----2------------------------------------|
A|-9----7----5----2------------------------------------|
E|-----------------------------------------------------|

E|-----------------------------------------------------|
B|-----------------------------------------------------|
G|-----------9----7------------------------------------|
D|-9----7----9----7----7-------------------------------|
A|-9----7----7----5----7-------------------------------|
E|---------------------5-------------------------------|

  P.M. . . . . . . . . . . . . . . 
E|-----------------------------------------------------|
B|-----------------------------------------------------|
G|-----------------------------------------------------|
D|-----------------------------------------------------|
A|-9-9-9-9-9-9-9-9-9-9-9-9-9-9-9-9---------------------|
E|-7-7-7-7-7-7-7-7-7-7-7-7-7-7-7-7---------------------|


Introdução – Parte 2:

(Guitarra 1)

E|-----------------------------------------------------|
B|-----------------------------------------------------|
G|-2------------2--------------------------------------|   (3x)
D|-2------------2--------------------------------------|
A|-0--x-x-----x-0-x-x----------------------------------|
E|--------3b----------3--2--0--------------------------|

E|--------------5--------------------------------------|
B|-----------------------------------------------------|
G|-2------------2--------------------------------------|
D|-2------------2--------------------------------------|
A|-0--x-x-----x-0--------------------------------------|
E|--------3b-------------------------------------------|

(Guitarra 2)

E|-----------------------------------------------------|
B|-----------------------------------------------------|
G|-----------------------------------------------------|   (3x)
D|-----------------------------------------------------|
A|-7--7--5--x-7--x-5--4--2-----------------------------|
E|-5--5--3--x-5--x-3--2--0-----------------------------|

  H.A
E|-----------------------------------------------------|
B|-----------------------------------------------------|
G|-7b9r7p5---7p5---------------------------------------|
D|---------7-----7-5-----------------------------------|
A|-------------------7-6-5\3-5p3-----------------------|
E|-------------------------------5-3-------------------|


Primeira Parte:

(Riff 1)
Welcome to the jungle

We got fun and games

We got everything you want

Honey, we know the names
           (Riff 2)
We are the people that can find

Whatever you may need

If you got no money, honey

We got your disease

       (Riff 3)
In the jungle, welcome to the jungle

Watch it bring you to your 

(Riff 4)
         Chalalala lalalala lalalala

Knees, knees

Oh, I wanna watch you bleed

(Riff 1 – Guitarra 1)

E|-----------------------------------------------------|
B|-----------------------------------------------------|
G|-2------------2--------------------------------------|  (4x)
D|-2------------2--------------------------------------|
A|-0--x-x-----x-0-x-x----------------------------------|
E|--------3b----------3--2--0--------------------------|

(Riff 1 – Guitarra 2)

E|-----------------------------------------------------|
B|-----------------------------------------------------|
G|-----------------------------------------------------|  (4x)
D|-----------------------------------------------------|
A|-----------------------------------------------------|
E|-5-5-3b--x-5--x-3--2--0------------------------------|


(Riff 2 – Guitarra 1)

E|-----------------------------------------------------|
B|-----------------------------------------------------|
G|-/9------7----9--7--6\4------------------------------|  (4x)
D|-/9------7----9--7--6\4------------------------------|
A|-/7--x-x-5--x-7--5--4\2------------------------------|
E|-----------------------------------------------------|

(Riff 2 – Guitarra 2)

E|-----------------------------------------------------|
B|-----------------------------------------------------|
G|-9-9-7----9----7--6\4--------------------------------|  (4x)
D|-9-9-7----9----7--6\4--------------------------------|
A|-7-7-5--x-7--x-5--4\2--------------------------------|
E|-----------------------------------------------------|


(Riff 3 – Guitarra 1)

E|-----------------------------------------------------|
B|-----------------------------------------------------|
G|-----------------------------------------------------|
D|-5-----------7---------------------------------------|
A|-3--2--------5--4------------------------------------|
E|-------5--3--------7--5------------------------------|

(Riff 3 – Guitarra 2)

E|-----------------------------12-12-----12-12---------|
B|-----------------------------12-12-----12-12---------|
G|-----------------------------------x-x-------x\------|
D|-5-----------7---------------------x-x-------x\------|
A|-3-----------5---------------------------------------|
E|-----------------------------------------------------|


(Riff 4)

E|-----------------------------------------------------|
B|-----------------------------------------------------|
G|-----------------------------------------------------|   (3x)
D|-----------------------------------------------------|
A|-7--7--5--x------------------------------------------|
E|------------6--x-5--3p0------------------------------|

E|-----------------------------------------------------|
B|-----------------------------------------------------|
G|-----------------------------------------------------|
D|-----------------------------------------------------|
A|-7---5-----------------------------------------------|
E|---------6~--5--3h4----------------------------------|


Segunda Parte:

(Riff 1)
Welcome to the jungle

We take it day by day

If you want it you're gonna bleed

But it's the price you pay
             (Riff 2)
And you're a very sexy girl

That's very hard to please

You can taste the bright lights

But you won't get them for free

       (Riff 3)
In the jungle, welcome to the jungle

Feel my 
(Riff 4)
         My, my, my serpentine

I, I wanna hear you scream


Primeiro Solo:

(Parte 1)

E|-----------------------------------------------------|
B|----------------------------12------------12~--------|
G|-x--12/13~---x-13--13----x--12--13~----x--12~--------|
D|-x--11/12~---x-14--14----x--11--12~----x-------------|
A|-----------------------------------------------------|
E|-----------------------------------------------------|

E|---------------------------------------15~~----------|
B|---------------15--15-------14/15\--x--15~~----------|
G|-x--12/13~---x-13--13----x--15/16\--x----------------|
D|-x-------~---x-----------x---------------------------|
A|-----------------------------------------------------|
E|-----------------------------------------------------|

(Parte 2)

E|--------19b22r--19-18-17b19r17---15-16---------------|
B|-----17--------------------------------15~-----------|
G|-/18-------------------------------------------------|
D|-----------------------------------------------------|
A|-----------------------------------------------------|
E|-----------------------------------------------------|

(Parte 3)

E|-10b12--10-7-----------------------------------------|
B|-------------11-10b11r10p8-10p8----------------------|
G|--------------------------------9-7------------------|
D|------------------------------------9-8-7b8r7----x---|
A|----------------------------------------------10-----|
E|-----------------------------------------------------|

E|-----------------------------------------------------|
B|-----------------------------------------------------|
G|-9--8--7~~-------------------------------------------|
D|-----------------------------------------------------|
A|-----------------------------------------------------|
E|-----------------------------------------------------|

Base do Primeiro Solo:

E|-----------------------------------------------------|
B|-----------------------------------------------------|
G|----7/8~------9-x-9~-------7/8~------12~-------------|
D|----6/7~------9-x-9~-------6/7~------12~-------------|
A|-----------------------------------------------------|
E|-0----------0-----------0----------0-----------------|


Terceira Parte:

(Riff 1)
Welcome to the jungle

It gets worse here everyday

Ya learn to live like an animal

In the jungle where we play
             (Riff 2)
If you got a hunger for what you see

You'll take it eventually

You can have anything you want

But you better not take it from me

       (Riff 3)
In the jungle, welcome to the jungle

Watch it bring you to your 
(Riff 4)
         Chalalala lalalala lalalala

Knees, knees

Oh, I wanna watch you bleed


Ponte:

D  G  D                  G
        And when you're high, you never
D                    G
  Ever want to come down
 F  G
So down
 F  G
So down
 F  A
So down

(Guitarra 1)

   D    G    D          G          D    G          D
E|-2----3----2--3p2--------8p7-----2-------8p7-----2---|
B|-3----3----3-------3--8-------8--3----8-------8--3---|
G|-2----0----2-------2--7-------7--2----7-------7--2---|
D|-0----0----0----------0----------0----0----------0---|
A|-----------------------------------------------------|
E|------3----------------------------------------------|

   G         F    G         F    G         F
E|-7-7-7-7-7-5----7-7-7-7-7-5----7-7-7-7-7-5-----------|
B|-8-8-8-8-8-6----8-8-8-8-8-6----8-8-8-8-8-6-----------|
G|-7-7-7-7-7-5----7-7-7-7-7-5----7-7-7-7-7-5-----------|
D|-----------------------------------------------------|
A|-----------------------------------------------------|
E|-----------------------------------------------------|

    A
E|--9--9--9--9--9--9--9--9-----------------------------|
B|-10-10-10-10-10-10-10-10-----------------------------|
G|--9--9--9--9--9--9--9--9-----------------------------|
D|-----------------------------------------------------|
A|-----------------------------------------------------|
E|-----------------------------------------------------|


Segundo Solo:

(Parte 1)

E|-12------12----12----12-------12---------------------|
B|-1517~---15b17-15b17-15b17~---15b17~-----------------|
G|-----------------------------------------------------|
D|-----------------------------------------------------|
A|-----------------------------------------------------|
E|-----------------------------------------------------|

E|--------12-------------------------------------------|
B|-12--------12-15-----------15b17r--15~---------------|
G|-14b16-----------b16r14-12---------------------------|
D|-----------------------------------------------------|
A|-----------------------------------------------------|
E|-----------------------------------------------------|

(Parte 2)

E|-----------------------------------------------------|
B|----------------------------------5---7b9r7~---------|
G|-------------------------4b--6~-----6----------------|
D|--------2---4b6r4~---4/6-----------------------------|
A|-2h4~-----4------------------------------------------|
E|-----------------------------------------------------|

E|----------7-------7----------------------------------|
B|-b9r7p5b--7b9~~--b9r7p5-----------5------------------|
G|------------------------6-4~---/6---6----------------|
D|-----------------------------------------------------|
A|-----------------------------------------------------|
E|-----------------------------------------------------|

(Parte 3)

E|-0---0---0---0---------------------------------------|
B|-5---3---2---0---b3r2p0---2--0-----------------------|
G|-----------------b3r2p0---2--0h1---------------------|
D|------------------------2----------------------------|
A|-----------------------------------------------------|
E|-----------------------------------------------------|

E|-----------------------------------------------------|
B|-0-0-0-----0-0---0-----------------------------------|
G|-1-2-2/4---4-2---1---2-------------------------------|
D|---------------------4--b3r2p0---2--0h1~-------------|
A|-------------------------------2---------------------|
E|-----------------------------------------------------|

(Parte 4)

E|-----------------------------------------------------|
B|-15b17--15~-----------------------------------14\12~-|
G|--------------14b16--14~---b16r14p12-----------------|
D|-------------------------------------14\12/14-14\12~-|
A|-----------------------------------------------------|
E|-----------------------------------------------------|

E|-----------------------------------------------------|
B|-----------------------------------------------------|
G|-----------------------------------------------------|
D|-b12r11---9------------------------------------------|
A|------------b12r11---9-b5r4---2----------------------|
E|--------------------------------b5r4---0---2~--------|


Base do Segundo Solo:

(Parte 1)

E|-----------------------------------------------------|
B|-----------------------------------------------------|
G|----7/8~------9-x-9~-------7/8~------12~-------------|   (2x)
D|----6/7~------9-x-9~-------6/7~------12~-------------|
A|-----------------------------------------------------|
E|-0----------0-----------0----------0-----------------|

(Parte 2)

   C#5               B5
E|-----------------------------------------------------|
B|-----------------------------------------------------|
G|-----------------------------------------------------|   (3x)
D|-6----6----6-4-6---4----4----4-2-4-------------------|
A|-4----4----4-2-4---2----2----2-0-2-------------------|
E|-----------------------------------------------------|

(Parte 3)

   E7
E|-----------------------------------------------------|
B|-0----0--0--0--0--0--0-------------------------------|
G|-7----7--7--7--7--7--7-------------------------------|
D|-6----6--6--6--6--6--6-------------------------------|
A|-7----7--7--7--7--7--7--0-1--------------------------|
E|-----------------------------------------------------|

   B7
E|-----------------------------------------------------|
B|-0----0--0--0--0--0--0-------------------------------|
G|-2----2--2--2--2--2--2-------------------------------|
D|-1----1--1--1--1--1--1-------------------------------|
A|-2----2--2--2--2--2--2--5-6--------------------------|
E|-----------------------------------------------------|

(Parte 4)

   E7
E|-----------------------------------------------------|
B|-0----0--0--0--0--0--0-------------------------------|
G|-7----7--7--7--7--7--7-------------------------------|
D|-6----6--6--6--6--6--6-------------------------------|
A|-7----7--7--7--7--7--7--0-1--------------------------|
E|-----------------------------------------------------|

   B7                       F#5                    B5
                                  P.M. . . . . . . 
E|-----------------------------------------------------|
B|-0----0--0--0--0--0--0-------------------------------|
G|-2----2--2--2--2--2--2---------------------------4---|
D|-1----1--1--1--1--1--1--0-4------4-4-4-4-4-4-4-4-4---|
A|-2----2--2--2--2--2--2--0-4------4-4-4-4-4-4-4-4-2---|
E|------------------------0-2------2-2-2-2-2-2-2-2-----|


Interlúdio:

You know where you are
You're in the jungle, baby
You're gonna die

(Guitarra 1)

        P.M. . . . . . . . . . . . . . .
E|---------------------------------------7------7------|
B|---------------------------------------10b12--10b12~-|
G|-----------------------------------------------------|
D|-----------------------------------------------------|
A|-/7~---7-7-7-7-6-6-6-5-5-5-4-4-3-3-2-2---------------|
E|-----------------------------------------------------|

  P.M. . . . . . . . . . . . . . .
E|---------------------------------12-----12-----------|
B|---------------------------------15b17--15b17~-------|
G|-----------------------------------------------------|
D|-----------------------------------------------------|
A|-7-7-7-7-6-6-6-5-5-5-4-4-3-3-2-2---------------------|
E|-----------------------------------------------------|

  P.M. . . . . . . . . . . . . . .
E|-----------------------------------------------------|
B|-----------------------------------------------------|
G|-----------------------------------------------------|   (4x)
D|-----------------------------------------------------|
A|-7-7-7-7-6-6-6-5-5-5-4-4-3-3-2-2---------------------|
E|-----------------------------------------------------|

(Guitarra 2)

  P.M. . . . . . . . . . . . . . . 
E|-----------------------------------------------------|
B|-----------------------------------------------------|
G|-----------------------------------------------------|   (6x)
D|-5-5-5-5-4-4-4-3-3-3-2-2-1-1-0-0---------------------|
A|-----------------------------------------------------|
E|-----------------------------------------------------|

(Passagem)

E|-----------------------------------------------------|
B|-----------------------------------------------------|
G|-----------------------------------------------------|
D|-----------------------------------------------------|
A|-4--3--4--5--7--6--7--9------------------------------|
E|-2--1--2--3--5--4--5--7------------------------------|


Quarta Parte:

       (Riff 3)
In the jungle

Welcome to the jungle

Watch it bring you to your 
(Riff 4)
         Chalalala lalalala lalalala

Knees, knees
       (Riff 3)
In the jungle

Welcome to the jungle

Feel my,
(Riff 4)
         My, my, my serpentine
(Riff 3)
Jungle

Welcome to the jungle

Watch it bring you to your 
(Riff 4)
         Chalalala lalalala lalalala

Knees, knees
        (Riff 3)
In the jungle

Welcome to the jungle

Watch it bring you to your
(Riff 5)
         It's gonna bring you down

Final – Riff 5:

(Guitarra 1)

E|-----------------------------------------------------|
B|------------------------------8----------------------|
G|------------------------------7----------------------|
D|------------------------------6----------------------|
A|-7--5-------------------------7----------------------|
E|-------6~-5--3--0--5--3b--0---0----------------------|

(Guitarra 2)

E|-----------------------------------------------------|
B|------------------------------3----------------------|
G|-9--7-------------------------1----------------------|
D|-9--7--8--7--5--2--7--5---2---0----------------------|
A|-------8--7--5--2--7--5---2---2----------------------|
E|------------------------------0----------------------|

(Guitarra 3)

E|-0----------------------------3----------------------|
B|-0--3-------------------------0----------------------|
G|----2--3--2--0-----2--0h1-----1----------------------|
D|-------3--2--0--2--2------2---2----------------------|
A|----------------2---------2--------------------------|
E|--------------------------0--------------------------|
00:00 / 00:00
Outros vídeos desta música
Repetir
Outros vídeos desta música
Composição de Axl Rose / Duff McKagan / Jeffrey Isbell / Saul Hudson / Steven Adler
1.077.703 exibições
    • ½ Tom
    • A
    • Bb
    • B
    • C
    • Db
    • D
    • Eb
    • E
    • F
    • F#
    • G
    • Ab
  • Adicionar à lista

    0 comentários

    Ver todos os comentários

    Conseguiu tocar?

    99 Tocaram 14 Ainda não

    Grave um vídeo tocando Welcome To The Jungle e nos envie!

    Entre para oCifra Club PRO

    Tenha acesso a benefícios exclusivos no App e no Site

    • Chega de anúncios

    • Prioridade de compra em lançamentos

    • Mais recursos no app do Afinador

    • Atendimento Prioritário

    • Descontos nos produtos Cifra Club

    • Ajude a produzir mais conteúdo

    00:00 / 00:00

    Cifra Club Pro

    Aproveite o Cifra Club com benefícios exclusivos e sem anúncios
    Cifra Club Pro
    Aproveite o Cifra Club com benefícios exclusivos e sem anúncios
    OK