Cifra Club

Aprenda

Welcome To The Jungle

Guns N' Roses

Tab de baixo: Principal
Intro:

Gb|---------------------------------------------------
Db|-9-7-------------7-8-------------------------------
Ab|----------5-6-7------------------------------------
Eb|-----9\-3------------------------------------------

Gb|---------------------------------------------------
Db|-9-9-9-9-9-9-9-9-9-9-9-9-9-9-9-9-------------------
Ab|---------------------------------------------------
Eb|---------------------------------------------------

Gb|---------------------------------------------------
Db|-7-7-7-7-7-7-7-7-7-7-7-7-7-7-7-6-------------------
Ab|---------------------------------------------------
Eb|---------------------------------------------------

Gb|---------------------------------------------------
Db|---------------------------------------------------
Ab|-7-7-7-7-7-7-7-7-7-7-7-7-7-7-7-5-------------------
Eb|---------------------------------5-----------------

Gb|---------------------------------------------------
Db|---------------------------------------------------
Ab|----------------------12-13-14---------------------
Eb|-7-7-7-7-7-7-7-7-7-7/----------0-14\---------------

Gb|---------------------------------------------------
Db|---------------------------------------------------
Ab|---------------------------------------------------
Eb|-5-5-3-x-5-x-3-2-x-0-5-5-3-x-5-x-3-2-x-0-----------

Gb|---------------------------------------------------
Db|-------------------------------x-5-5-5-------------
Ab|---------------------------------------------------
Eb|-5-5-3-x-5-x-3-2-x-0-5-5-3-x-5---------------------



Primeira parte:

Gb|---------------------------------------------------
Db|---------------------------------------------------
Ab|---------------------------------------------------
Eb|-5-5-3-x-5-x-3-2-x-0-5-5-3-x-5-x-3-2-x-0-----------

Gb|---------------------------------------------------
Db|---------------------------------------------------
Ab|-------------------------------------5-6-----------
Eb|-5-5-3-x-5-x-3-2-x-0-5-5-3-x-5-x-3-5---------------

Gb|---------------------------------------------------
Db|---------------------------------------------------
Ab|-7-5-x-7-x-5-4---7-7-5-x-7-x-5-4-------------------
Eb|---------------7-----------------7-----------------

Gb|---------------------------------------------------
Db|---------------------------------------------------
Ab|-7-7-5-x-7-x-5-4---7-7-5-x-7-x-5-7-0---------------
Eb|-----------------7---------------------------------

Welcome to the jungle
We got fun and games
We got everything you want
Honey, we know the names
We are the people that can find
Whatever you may need
If you got no money honey
We got your disease
We are the people that can find
Whatever you may need
If you got no money honey
We got your disease


Refrão:

Gb|---------------------------------------------------
Db|---------------------------------------------------
Ab|-3-3-3-------5-5-5-5-x-x---------------------------
Eb|-------0-3-0---------------------------------------

Gb|---------------------------------------------------
Db|---------------------------------------------------
Ab|-7-7-5-------------7-7-5---------------------------
Eb|-------x-6-6-5-3-0-------x-6-6-5-3-0---------------

Gb|---------------------------------------------------
Db|---------------------------------------------------
Ab|-7-7-5-------------7-5-----------------------------
Eb|-------x-6-6-5-3-0-----6-5-3-4---------------------

(...)
In the jungle, welcome to the jungle
Watch it bring you to your
Sha-na-na-na-na-na-na-na-knees, knees
Oh, I wanna watch you bleed


(Repete Primeira parte)

(...)
Welcome to the jungle
We take it day by day
If you want it you're gonna bleed
But it's the price you pay
And you're a very sexy girl
That's very hard to please
You can taste the bright lights
But you won't get them for free


Segundo refrão:

Gb|---------------------------------------------------
Db|---------------------------------------------------
Ab|-3-3-3-------5-5-5-5-x-x---------------------------
Eb|-------0-3-0---------------------------------------

Gb|---------------------------------------------------
Db|---------------------------------------------------
Ab|-7-7-5-------------7-7-5---------------------------
Eb|-------x-6-6-5-3-0-------x-6-6-5-3-0---------------

Gb|---------------------------------------------------
Db|---------------------------7-----------------------
Ab|-7-7-5---------------------------------------------
Eb|-------x-6-6-5-3-0-7-7-7-7-------------------------

(...)
In the jungle, welcome to the jungle
Feel my, my, my, my serpentine
Oh, I wanna hear you scream


Solo de guitarra 1:

Gb|---------------------------------------------------
Db|---------------------------------------------------
Ab|---4-5-------7-7-------4-5-------------------------
Eb|-0-----0-0-0-----0-0-0-----0-0-3-3-3-0-0-----------

Gb|---------------------------------------------------
Db|---------------------------------------------------
Ab|---4-5-------7-7-------4-5-------------------------
Eb|-0-----0-0-0-----0-0-0-----0-0-3-3-3-0-0-----------

Gb|---------------------------------0---0-------------
Db|---------------------------------------------------
Ab|---4-5-------7-7-------4-5-------------------------
Eb|-0-----0-0-0-----0-0-0-----0-0-3---3---------------

Gb|---------------------------------------------------
Db|---------------------------------------------------
Ab|---4-5-------7-7-------4-5-------------------------
Eb|-0-----0-0-0-----0-0-0-----0-0-3-3-3-x-x-----------


(Repete Primeira parte)

(...)
Welcome to the jungle
It gets worse here everyday
Ya learn to live like an animal
In the jungle where we play
If you got a hunger for what you see
You'll take it eventually
You can have anything you want
But you better not take it from me


Terceiro refrão:

Gb|---------------------------------------------------
Db|---------------------------------------------------
Ab|-3-3-3-------5-5-5-5-x-x---------------------------
Eb|-------0-3-0---------------------------------------

Gb|---------------------------------------------------
Db|---------------------------------------------------
Ab|-7-7-5-------------7-7-5---------------------------
Eb|-------x-6-6-5-3-0-------x-6-6-5-3-0---------------

Gb|---------------------------------------------------
Db|---------------------------------------------------
Ab|-7-7-5-------------7-5-----------------------------
Eb|-------x-6-6-5-3-0-----6-5-3-0---------------------

(...)
In the jungle, welcome to the jungle
Watch it bring you to your
Sha-na-na-na-na-na-na-na-knees, knees
Oh, I wanna watch you bleed


Segunda parte:

Gb|---------------------------------------------------
Db|---------------3-4-5-------------------------------
Ab|-5---5---3-4-5-------0-3-4-5-5-3-5-3-0-------------
Eb|---3---3-------------------------------1-----------

Gb|---------------------------------------------------
Db|---------------------------------------------------
Ab|---------------------------------------------------
Eb|-3-3-3-3-3-1-3-3-3-3-3-1-3-3-3-3-3-1---------------

Gb|---------------------------------------------------
Db|---------5-5-5-5-----------------------------------
Ab|---------------------------------------------------
Eb|-5-5-5-5-------------------------------------------

(...)
And when you're high you never
Ever want to come down
So down, so down, so down
Yeah, down!


Solo de guitarra 2:

Gb|---------------------------------------------------
Db|---------------------------------------------------
Ab|---4-5-------7-7-------4-5-------------------------
Eb|-0-----0-0-0-----0-0-0-----0-0-3-3-3-0-0-----------

Gb|---------------------------------------------------
Db|---------------------------------------------------
Ab|---4-5-------7-7-------4-5-------------------------
Eb|-0-----0-0-0-----0-0-0-----0-0-3-3-3/--------------

Gb|---------------------------------------------------
Db|---------------------------------------------------
Ab|---------------------------------------------------
Eb|-9-7-9-7-7-9-7-9-7-5-7-5-5-7-5-7-x-x---------------

Gb|---------------------------------------------------
Db|---------------------------------------------------
Ab|---------------------------------------------------
Eb|-9-7-9-7-7-9-7-9-7-5-7-5-5-7-5-7-x-x---------------

Gb|---------------------------------------------------
Db|---------------------------------------------------
Ab|---------------------------------------------------
Eb|-9-7-9-7-7-9-7-9-7-5-7-0-7-0-3---------------------

Gb|---------------------------------------------------
Db|---------------------------------------------------
Ab|-----7-------7-------7-----------------------------
Eb|-0-0---0-0-0---0-0-0---0-0-0-5-6-------------------

Gb|---------------------------------------------------
Db|---------------------------9-7---------------------
Ab|-------------------------------9-------------------
Eb|-7-7-7-x-x-7-0-5-7-0-7-0-7-------------------------

Gb|---------------------------------------------------
Db|---------------------------------------------------
Ab|-7-7-5---5-7-0-7-5---5-----------------------------
Eb|-------7-----------7---5-6-------------------------

Gb|---------------------------------------------------
Db|---------------------------------------------------
Ab|-----------------------------7\--------------------
Eb|-7-7-7-0-0-7-7-0-7-7-7-0-0-7-----------------------


Gb|---------------------------------------------------
Db|---------------2-3-4-4-4-4-4-2---------------------
Ab|-------------------------------4-0-2-2/-14\--------
Eb|-2-2-2-2-2-2-0-------------------------------------


Interlúdio:

Gb|---------------------------------------------------
Db|---------------------------------------------------
Ab|---------------------------------------------------
Eb|-0-0-0-0-1-1-1-2-2-1-0-2-2-2-3-3-2-0-3-3-3-4-4-3-0-

Gb|---------------------------------------------------
Db|---------------------------------------------------
Ab|---------------------------------------------------
Eb|-4-4-5-5-------------------------------------------

Gb|---------------------------------------------------
Db|---------------------------------------------------
Ab|-7-7-7-7-6-6-6-5-5-5-4-4-3-3-2--------------------- (9x)
Eb|---------------------------------------------------

Gb|---------------------------------------------------
Db|---------------------------------------------------
Ab|-7-7-7-7-6-6-6-5-5-5-4-4-3-2-----------------------
Eb|-----------------------------2-1-2-3-5-4-5-6-0-----

(...)
You know where you are?
You're in the jungle baby
You gonna die!


Quarto refrão:

Gb|---------------------------------------------------
Db|---------------------------------------------------
Ab|-3-3-3-------5-5-5-5-x-x---------------------------
Eb|-------0-3-0---------------------------------------
                                                        (3x)
Gb|---------------------------------------------------
Db|---------------------------------------------------
Ab|-7-7-5-------------7-7-5---------------------------
Eb|-------x-6-6-5-3-0-------x-6-6-5-3-0---------------

Gb|---------------------------------------------------
Db|---------------------------------------------------
Ab|-3-3-3-------5-5-5-5-x-x---------------------------
Eb|-------0-3-0---------------------------------------

Gb|---------------------------------------------------
Db|---------------------------------------------------
Ab|-7-5---------------7-------------------------------
Eb|-----6-5-3-4-5-3-0-0-------------------------------

(...)
In the jungle, welcome to the jungle
Watch it bring you to your
Sha-na-na-na-na-na-na-na-knees, knees

In the jungle, welcome to the jungle
Feel my, my, my, my serpentine

In the jungle, welcome to the jungle
Watch it bring you to your
Sha na na na na... knees, knees

In the jungle, welcome to the jungle
Watch it bring you to your
It's gonna bring you down, huh!
Composição de Axl Rose / Duff McKagan / Slash / zzy Stradlin
Colaboração e revisão:
  • Filipe Marks
151.314 exibições

0 comentários

Mostrar mais comentários

Conseguiu tocar?

13 Tocaram 2 Ainda não

Grave um vídeo tocando Welcome To The Jungle e mande pra gente!

00:00 / 00:00
outros vídeos desta música
repetir qualidade Automático
Outros vídeos desta música
00:00 / 00:00
Automático
OK