Cifra Club

Yesterdays

Guns N' Roses

Tab de baixo: Principal
Yesterday - Guns N' Roses
Afinar 1/2 tom abaixo.

G-----------------------------------------7h9-7--------------------
D--------------------------------------7h9-----9p7------------55---
A--5--5-0-5-5---3--3--------0-3-4-5--5-------------3--3------------
E--------------------0-3-33-----------------------------0-3-3---3--

G---------------------------------------------------------------
D---------------------------------------------------------------
A--5-5--0-33-0-3-0-3-0-------------5--5-0-5---------------------
E----------------------3--3-0-3-3-----------00-2-3H------3s15s3-

VERSE: "Prayers in my pocket..."
G-----------------------------------------------------
D-----------------------------------------------------
A--5--5-0-5-5---3--3--------5--5-0-5-5---3--3---------
E--------------------0-3-3H-------------------0-3-3H--

"Coz yesterdays got nothing for me..."
G--------------------------------------------------------------
D------------------------------------------3-3-4-5H------------
A-5-5--0-33-0-3-0-3-0-------------5--5-0-5---------------------
E---------------------3--3-0-3-3-------------------------------

CHORUS: "Oh, yesterday..."
G---------------------------------------------------------------
D---------------------------------------5h7p5-5-3h5-00-5-3------
A-------------2-3--3-0-3-3---------------------------------5-4-3
E--5--5-0-5-5--------------0-2-3--0-33--------------------------

G---------------------------------------------------------------
D---------------------------------------------------------------
A-------------2-3--3--------------------------------------------
E--5--5-0-5-5--------0-0-1-1-2-2-3--3-0-3-3-0-3-33-0-33H--------

SOLO:
G---------------------------------------------------------------------------
D---------------------------------------------------------------------------
A-2--2-0-22-----------2--2-0-22-------------2--2-0-22--4--4-0-44--5--5-0-55-
E-----------3--3-0-33-----------0-3--3-33-3---------------------------------

G-------------------------------------------
D----------------------------2-----2----2---
A-------------------------------------------
E--0-0-00-00-0-0-0-0-00-00-00-0-0-0-0-00-00-

VERSE 2:
G-----------------------------------------7h9-7--------------------
D--------------------------------------7h9-----9p7------------55---
A--5--5-0-5-5---3--3--------0-3-4-5--5-------------3--3------------
E--------------------0-3-33-----------------------------0-3-3---3--

G--------------------------------------------------------------------
D------------------------------5---------------33-4-5-5-3h5--5-3-3---
A--5-5--0-33-0-3-0-3-0------------0-3-4-5--5-55------------55---5-543
E----------------------3--3-0-3-3------------------------------------

CHORUS: "Oh, yesterday..."
G---------------------------------------------------------------
D---------------------------------------5h7p5-5-3h5-00-5-3------
A-------------2-3--3-0-3-3---------------------------------5-4-3
E--5--5-0-5-5--------------0-2-3--0-33--------------------------

G---------------------------------------------------------------
D----------------------2---3---4----------345-5-3h5---5-3-------
A-------------2-3--3--------------------------------55----5-4-3-
E--5--5-0-5-5--------0---1---2---3--3-0-33----------------------

G---------------------------------------------------------------
D--------------------------------------3-4-5-5555-5-55-5-55-5-55
A-------------2-3--3-0-3-3--------------------------------------
E--5--5-0-5-5--------------0-2-3--0-33--------------------------

G---------------------------------------------------------------
D--------7------------------------------------------------------
A-----------2-3H------------------------------------------------
E--5--5-0-55----------------------------------------------------
exibições 2.281
Composição: Axl Rose / Billy McCloud / Del James / West Arkeen Colaboração e revisão:
  • Matheus

0 comentários

mostrar mais comentários

Conseguiu tocar?

1 tocaram 0 ainda não

Grave um vídeo tocando Yesterdays e mande pra gente!

00:00 / 00:00
outros vídeos desta música
repetir qualidade Automático
Outros vídeos desta música
00:00 / 00:00
Automático
OK