Cifra Club

Sunset Riders

Gustavo Fofão

Cifra: Principal (violão e guitarra)
tom: A
Intro

Parte 1
E|-----------------------------------------------------|
B|-----------------------------------------------------|
G|-----------------------------------------------------|
D|---0-2--------------2~-------------------------------|
A|-3------2-h3p2p0----0--------------------------------|
E|-1------3--------3-----------------------------------|

Parte 2
E|-----------------------------------------------------|
B|--------------------------------------------------0--|
G|-------------------------------0-------0--------0----|
D|------0-0h2------------------4-------4--------4------|
A|---3--------2--h3p2p0------2-------2--------2--------|
E|-1----------3---------3--0-------0-------0-----------|

Parte 3
E|-------0--3--0---------------------------------------|
B|-1-1/3----3----4\3--0----1/3--1----------------------|
G|-2--------0---------0---0-/0--2----------------------|
D|-2------------------2--2--/4--2----------------------|
A|------------------------------0----------------------|
E|-1--------3---------0--------------------------------|

Parte 4
E|-------------------------0~--------------------------|
B|-----0--0h1--0-----------0~--------------------------|
G|-2-----------0-------0---5~--------------------------|
D|-2-----------0---0h2-----7~--------------------------|
A|-------------------------0~--------------------------|
E|-1-1---------3-3-------------------------------------|

Parte 5
E|-12--------------------------------------------------|
B|-10--------10------10--------10----------------------|
G|-9-----9---------9-------9---------9-----------------|
D|-10-10--------10------10--------10-------------------|
A|-0-------0---------0-------0-------------------------|
E|-----------------------------------------------------|

E|-----------------------------------------------------|
B|-10--------10------10--------10----------------------|
G|-------9---------9-------9---------9-----------------|
D|----10--------10------10--------10-------------------|
A|-0-------0---------0-------0-------------------------|
E|-----------------------------------------------------|

Parte 6
E|-8---------------------------------------------------|
B|-0--------0------0--------0--------------------------|
G|-5----5-------5-------5-------5----------------------|
D|-7--7-------7-------7-------7------------------------|
A|-0------0--------0------0----------------------------|
E|-----------------------------------------------------|

E|-----------------------------------------------------|
B|-0--------0------0--------0--------------------------|
G|------5-------5-------5-------5----------------------|
D|----7-------7-------7-------7------------------------|
A|-0------0--------0------0----------------------------|
E|-----------------------------------------------------|

Parte 7
E|-0---------------------------------------------------|
B|-10--------10------10--------10----------------------|
G|-9-----9---------9-------9---------9-----------------|
D|-10-10--------10------10--------10-------------------|
A|-0-------0---------0-------0-------------------------|
E|-----------------------------------------------------|

E|-----------------------------------------------------|
B|-10--------10------10--------10----------------------|
G|-------9---------9-------9---------9-----------------|
D|----10--------10------10--------10-------------------|
A|-0-------0---------0-------0-------------------------|
E|-----------------------------------------------------|

Parte 8
E|-----------------------------------------------------|
B|-3--------3------3--------3--------------------------|
G|-0----0-------0-------0-------0----------------------|
D|-7--7-------7-------7-------7------------------------|
A|-0------0--------0------0----------------------------|
E|-----------------------------------------------------|

E|-----------------------------------8~----------------|
B|-3/5------5------5--------5--------0~----------------|
G|--------0-------0-------0-------0--0~----------------|
D|------7-------7-------7-------7----5~----------------|
A|-0--------0--------0------0--------0~----------------|
E|-----------------------------------------------------|

Primeira parte

Parte 1
E|-5---------------------------------------------------|
B|-1--------1-----1--------1---------------------------|
G|-0----0-------0------0-------0-----------------------|
D|----2-------2------2-------2-------------------------|
A|-0------0-------0------0-----------------------------|
E|-----------------------------------------------------|

E|-----------------5-----3-----------------------------|
B|-1--------1------------------------------------------|
G|------0-------0------0-----0-------------------------|
D|----2-------2------2-----0---------------------------|
A|-0------0--------0-----2-----------------------------|
E|-----------------------------------------------------|

Parte 2
E|-0---------------------------------------------------|
B|----------1-----1--------1---------------------------|
G|------0-------0------0-------0-----------------------|
D|----2-------2------2-------2-------------------------|
A|-3------3-------3------3-----------------------------|
E|-----------------------------------------------------|

E|-----------------------------------------------------|
B|-0h1--------1-----1--------1-------------------------|
G|--------0-------0------0-------0---------------------|
D|------2-------2------2-------2-----------------------|
A|-3--------3-------3------3---------------------------|
E|-----------------------------------------------------|

Parte 3
E|-5--------------5------------------------------------|
B|----------1--------------1---------------------------|
G|------0-------0------0-------0-----------------------|
D|----2-------2------2-------2-------------------------|
A|-0------0-------0------0-----------------------------|
E|-----------------------------------------------------|

E|-5---------------5/7--------7------------------------|
B|----------1------------------------------------------|
G|------0-------0--5/7----7-------7--------------------|
D|----2-------2---------0-------0----------------------|
A|-0------0-----------------7--------------------------|
E|-----------------5/7---------------------------------|

Parte 4
E|-0--------------3--------1---------------------------|
B|----------1------------------------------------------|
G|------0-------0------0-------0-----------------------|
D|----2-------2------2-------2-------------------------|
A|-3------3-------3------3-----------------------------|
E|-----------------------------------------------------|

E|-0---------------------------------------------------|
B|----------3-----1--------0---------------------------|
G|------0-------0------0-------0-----------------------|
D|----2-------2------2-------2-------------------------|
A|-3------3-------3------3-----------------------------|
E|-----------------------------------------------------|

Segunda parte

Parte 1
E|------------0-----------------0----------------------|
B|-0h1---------------0h1-------------------------------|
G|-0h2----2-------2---------2-------2------------------|
D|-0h2--2-------2---------2-------2--------------------|
A|-----------------------------------------------------|
E|-1--------1--------1--------1------------------------|

E|------------0-----------------0----------------------|
B|-0h1---------------0h1-------------------------------|
G|-0------0-------0---------0-------0------------------|
D|------3-------3---------3-------3--------------------|
A|-----------------------------------------------------|
E|-1--------1--------1--------1------------------------|

Parte 2
E|-----------------------------------------------------|
B|-0-------0-----0--------0----------------------------|
G|-----0-------0------0-------0------------------------|
D|---2-------2------2-------4--------------------------|
A|-----------------------------------------------------|
E|-0-----0-------0------0------------------------------|

E|-------0---------------0-----------------------------|
B|-3---------3-----3---------3-------------------------|
G|---0-----------0---0-----------0---------------------|
D|-----4-------4-------4-------4-----------------------|
A|-----------------------------------------------------|
E|-0-------0-------0-------0---------------------------|

Parte 3
E|------------0-----------------0----------------------|
B|-0h1---------------0h1-------------------------------|
G|-0h2----2-------2---------2-------2------------------|
D|-0h2--2-------2---------2-------2--------------------|
A|-----------------------------------------------------|
E|-1--------1--------1--------1------------------------|

E|------------0-----------------0----------------------|
B|-0h1---------------0h1-------------------------------|
G|-0------0-------0---------0-------0------------------|
D|------3-------3---------3-------3--------------------|
A|-----------------------------------------------------|
E|-1--------1--------1--------1------------------------|

Parte 4 - variação 1
E|-----------------------------------------------------|
B|-0--------0-----0--------0---------------------------|
G|------0-------0------0-------0-----------------------|
D|----2-------2------2-------2-------------------------|
A|-----------------------------------------------------|
E|-0------0-------0------0-----------------------------|

E|-----------------------------------------------------|
B|-1--------1-----1--------1---------------------------|
G|------0-------0------0-------0-----------------------|
D|----2-------2------2-------2-------------------------|
A|-----------------------------------------------------|
E|-0------0-------0------0-----------------------------|

Parte 4 - variação 2
E|-----------------------------------------------------|
B|-0--------0-----0--------0---------------------------|
G|------0-------0------0-------0-----------------------|
D|----0-------0------0-------0-------------------------|
A|-----------------------------------------------------|
E|-3------3-------3------3-----------------------------|

E|-----------------------------------------------------|
B|-0---------0-----0--------0--------------------------|
G|-------0-------0------0-------0----------------------|
D|-----0-------0------0-------0------------------------|
A|-----------------------------------------------------|
E|-3/4-----3-------4------4----------------------------|

Parte 4 - variação 3
E|-----------------------------------------------------|
B|-0-----0-1-3-----------------------------------------|
G|-0---2-----------------------------------------------|
D|-0---------------------------------------------------|
A|-2---------------------------------------------------|
E|-3---------------------------------------------------|

Terceira parte

Parte 1
E|-----------------------------------------------------|
B|-0----------0------0----------0----------------------|
G|--------0-------0---------0-------0------------------|
D|---h2-2-------2------h2-2-------2--------------------|
A|-0--------0--------0--------0------------------------|
E|-----------------------------------------------------|

Parte 2
E|-----------------------------------------------------|
B|-0----------0------0----------0----------------------|
G|--------5-------5---------5-------5------------------|
D|---h5h7-------7------h5h7-------7--------------------|
A|-0--------0--------0--------0------------------------|
E|-----------------------------------------------------|

Parte 3
E|-----------------------------------------------------|
B|-0----------0------0----------0----------------------|
G|--------0-------0---------0-------0------------------|
D|---h2-2-------2------h2-2-------2--------------------|
A|-0--------0--------0--------0------------------------|
E|-----------------------------------------------------|

Parte 4
E|-----------------------------------------------------|
B|-0----------0------0----------0----------------------|
G|--------5-------5---------5-------5------------------|
D|------7-------7---------7-------7--------------------|
A|-0--------0--------0--------0------------------------|
E|-----------------------------------------------------|

Quarta parte

Parte 1
E|-8---------------------------------------------------|
B|----------0-----0--------0---------------------------|
G|------5-------5------5-------5-----------------------|
D|----7-------7------7-------7-------------------------|
A|-0------0-------0------0-----------------------------|
E|-----------------------------------------------------|

E|-7---------------------------------------------------|
B|----------0------8-------x\--------------------------|
G|------5-------5------x\------x\----------------------|
D|----7-------7------x\------x\------------------------|
A|-0------0--------0-----0-----------------------------|
E|-----------------------------------------------------|

Parte 2
E|-0---------------------------------------------------|
B|----------1-----1--------1---------------------------|
G|------0-------0------0-------0-----------------------|
D|----2-------2------2-------2-------------------------|
A|-3------3-------3------3-----------------------------|
E|-----------------------------------------------------|

E|-----------------------------------------------------|
B|-0h1--------1-----1--------1-------------------------|
G|--------0-------0------0-------0---------------------|
D|------2-------2------2-------2-----------------------|
A|-3--------3-------3------3---------------------------|
E|-----------------------------------------------------|

Parte 3
E|-8---------------------------------------------------|
B|----------0-----0--------0---------------------------|
G|------5-------5------5-------5-----------------------|
D|----7-------7------7-------7-------------------------|
A|-0------0-------0------0-----------------------------|
E|-----------------------------------------------------|

E|-10--------------------------------------------------|
B|----------0------0-------0---------------------------|
G|------5-------5------5-------5-----------------------|
D|----7-------7------7-------7-------------------------|
A|-0------0--------0-----0-----------------------------|
E|-----------------------------------------------------|

Parte 4
E|-12--------------------------------------------------|
B|----------0-----0--------0---------------------------|
G|------0-------0------0-------0-----------------------|
D|----0-------0------0-------0-------------------------|
A|-----------------------------------------------------|
E|-8------8-------8------8-----------------------------|

E|-12--------------------------------------------------|
B|-12-------0-----0--------0---------------------------|
G|-12---0-------0------0-------0-----------------------|
D|----0-------0------0-------0-------------------------|
A|-----------------------------------------------------|
E|-8------8-------8\-----x\----------------------------|

Partefinal

Parte 1
E|----4/5-3\-------0h3p0---0---------------------------|
B|-5-----------3---------3---1--0----------------------|
G|----4/5-4\---2-------------0--0----------------------|
D|-5-----------0-------------2--2----------------------|
A|-3-----------2-2-----------0--2----------------------|
E|------------------------------0----------------------|

Parte 2
E|----4/5-3\-------0h3p0---0---8p7---------------------|
B|-5-----------3---------3---------8\3-3---------------|
G|----4/5-4\---2---------------------------------------|
D|-5-----------0---------------------------------------|
A|-3-----------2-2-----------0-------------------------|
E|-----------------------------------------------------|

E|---8p7-------5p3------------0------------------------|
B|-------8\3-3-----6-5------5--------------------------|
G|------------------------0----------------------------|
D|----------------------7------------------------------|
A|-0---------------------------------------------------|
E|-----------------------------------------------------|

Parte 3
E|----4/5-3\-------0h3p0---0---------------------------|
B|-5-----------3---------3---1----1-3-b5r3p1-0---------|
G|----4/5-4\---2-2--------------2------------0---------|
D|-5-----------0-------------2---------------2---------|
A|-3-----------1-------------0---------------2---------|
E|-------------------------------------------0---------|

Parte 4
E|----------------------0-0--0-0--0------0-0-----------|
B|-1-1-1/3--0--h1p0------------------------------------|
G|-2--------0-------2-0-2-2/-4-5--4h5p4--2-0-----------|
D|-2--------0------------------------------------------|
A|----------------------0------------------------------|
E|-1--------3------------------------------------------|

Parte 5
E|--------0--------------------------------------------|
B|-1-1/3----0--h1p0------------------------------------|
G|-2--------0-------2-0--------------------------------|
D|-2--------0------------------------------------------|
A|-----------------------------------------------------|
E|-1--------3------------------------------------------|

E|-----------0-2---0-----------------------------------|
B|---------3-3-3-3-0---0-------------------------------|
G|-------0-------2---2-0-------------------------------|
D|-----4-------------4---0---0-------------------------|
A|---2---------------------0---4\2p0-------------------|
E|-0---------------------------------------------------|

Parte 6
E|-----------------------------------------------------|
B|-----------------------------------------------------|
G|--------0--------------------------------------------|
D|---0-2--0--h2h3p2p0-----------2----------------------|
A|-3---------------------2-3/5--0----------------------|
E|-1------3------------0-------------------------------|

Parte 7
E|----------------------0------------------------------|
B|----0-0h1-0---------1---1----0-----------------------|
G|-2--2-----0-------2-------2--0-----------------------|
D|-2--2-----0-----2------------0-----------------------|
A|-0---------------------------------------------------|
E|-1--------3---1--------------3-----------------------|

Parte 8
E|---------------------------0-------------------------|
B|---------------------------0-------------------------|
G|-------0--0h2--------------5-------------------------|
D|-----2-2------0-h2p0-------7-------------------------|
A|---0----------2------h2----0-------------------------|
E|-1------------3---------3----------------------------|
00:00 / 00:00
Outros vídeos desta música
Repetir
Outros vídeos desta música
Compositor não encontrado.
Colaboração e revisão:
  • Lucas Kappaun
359 exibições
    • ½ Tom
    • A
    • Bb
    • B
    • C
    • Db
    • D
    • Eb
    • E
    • F
    • F#
    • G
    • Ab
  • Adicionar à lista

    0 comentários

    Ver todos os comentários

    Conseguiu tocar?

    1 Tocaram 1 Ainda não

    Grave um vídeo tocando Sunset Riders e nos envie!

    Entre para oCifra Club PRO

    Tenha acesso a benefícios exclusivos no App e no Site

    • Chega de anúncios

    • Prioridade de compra em lançamentos

    • Mais recursos no app do Afinador

    • Atendimento Prioritário

    • Descontos nos produtos Cifra Club

    • Ajude a produzir mais conteúdo

    00:00 / 00:00

    Cifra Club Pro

    Aproveite o Cifra Club com benefícios exclusivos e sem anúncios
    Cifra Club Pro
    Aproveite o Cifra Club com benefícios exclusivos e sem anúncios
    OK