Cifra Club

Abre o Portão Que Eu Cheguei

Gusttavo Lima

Cifra: Principal (violão e guitarra)
tom: B (forma dos acordes no tom de A) Capotraste na 2ª casa
[Intro] A  E  D2

E|------------------------------------------|
B|-3/5-5-3---------3/5-5-3------------------|
G|---------4/6-4-2---------4/6-4-2----------|
D|------------------------------------------|
A|------------------------------------------|
E|------------------------------------------|

E|------------------------------------------|
B|-------------3-3-2-3-3/5-5----------------|
G|-2h4-4-4/6-2------------------------------|
D|------------------------------------------|
A|------------------------------------------|
E|------------------------------------------|

[Primeira Parte]

      A
Tá me achando com cara de bobo?

Por que tá me ligando de novo?
       D2
Dessa vez eu só tô te atendendo pra dizer

Que ontem foi a nossa última vez
      A
Você deve se achar muito esperta

Toda vez com a mesma conversa
     D2
Me ilude me leva no chão
                                            
E quando vou dormir 
                          F#m
Já estou com você na sua cama

[Pré-Refrão]

           E               D2
Eu não consigo entender você
                            
Sempre me diz que é amor mas 
                   F#m
Só me quer por prazer
           E
Olha pra trás veja tudo o que fez
D2
   Agora quer brincar comigo 

E não vai ter outra vez

[Refrão]

A
  Tô cansando de sair no meio da noite e te satisfazer
E/G#
     E um minuto depois de matar minha vontade eu me arrepender
F#m                 E                 
    Sair de madrugada, do meio da balada 
              D2
Largar minha vida pra vir ver você

Só pra vir ver você

A
  Cê sabe que eu sou louco por você e que me tem nas mãos
E/G#
     E confesso que às vezes me pego esperando a sua ligação
F#m                  E                     D2
    Tava fora de mim,  esquece o que eu falei
                          A  E  D2
Abre o portão que eu cheguei

[Solo]

E|------------------------------------------|
B|-3/5-5-3---------3/5-5-3------------------|
G|---------4/6-4-2---------4/6-4-2----------|
D|------------------------------------------|
A|------------------------------------------|
E|------------------------------------------|

E|------------------------------------------|
B|-------------3-3-2-3-3/5-5----------------|
G|-2h4-4-4/6-2------------------------------|
D|------------------------------------------|
A|------------------------------------------|
E|------------------------------------------|

[Pré-Refrão]

F#m            E               D2
    Eu não consigo entender você
                            
Sempre me diz que é amor mas 
                   F#m
Só me quer por prazer
           E
Olha pra trás veja tudo o que fez
D2
   Agora quer brincar comigo 

E não vai ter outra vez

[Refrão]

A
  Tô cansando de sair no meio da noite e te satisfazer
E/G#
     E um minuto depois de matar minha vontade eu me arrepender
F#m                 E                 
    Sair de madrugada, do meio da balada 
              D2
Largar minha vida pra vir ver você

Só pra vir ver você

A
  Cê sabe que eu sou louco por você e que me tem nas mãos
E/G#
     E confesso que às vezes me pego esperando a sua ligação
F#m                  E                     D2
    Tava fora de mim,  esquece o que eu falei
                          A  E  D2
Abre o portão que eu cheguei

[Solo]

E|------------------------------------------|
B|-3/5-5-3---------3/5-5-3------------------|
G|---------4/6-4-2---------4/6-4-2----------|
D|------------------------------------------|
A|------------------------------------------|
E|------------------------------------------|

E|------------------------------------------|
B|-------------3-2---3-3/5-5----------------|
G|-2h4-4-4/6-2-----2------------------------|
D|------------------------------------------|
A|------------------------------------------|
E|------------------------------------------|

[Refrão]

A
  Tô cansando de sair no meio da noite e te satisfazer
E/G#
     E um minuto depois de matar minha vontade eu me arrepender
F#m                 E                 
    Sair de madrugada, do meio da balada 
              D2
Largar minha vida pra vir ver você

Só pra vir ver você

A
  Cê sabe que eu sou louco por você e que me tem nas mãos
E/G#
     E confesso que às vezes me pego esperando a sua ligação
F#m                  E                     D2
    Tava fora de mim,  esquece o que eu falei
                          A  E  D2
Abre o portão que eu cheguei

[Final]

E|------------------------------------------|
B|-3/5-5-3---------3/5-5-3------------------|
G|---------4/6-4-2---------4/6-4-2----------|
D|------------------------------------------|
A|------------------------------------------|
E|------------------------------------------|

E|------------------------------------------|
B|-3p2---3-3/5------------------------------|
G|-----2-------2----------------------------|
D|------------------------------------------|
A|------------------------------------------|
E|------------------------------------------|
00:00 / 00:00
Outros vídeos desta música
Repetir
Outros vídeos desta música
Composição de Arthur Cruz / Elvis Elan / Igor Soares
528.128 exibições
    • ½ Tom
    • A
    • Bb
    • B
    • C
    • Db
    • D
    • Eb
    • E
    • F
    • F#
    • G
    • Ab
  • Adicionar à lista

    0 comentários

    Ver todos os comentários

    Conseguiu tocar?

    43 Tocaram 11 Ainda não

    Grave um vídeo tocando Abre o Portão Que Eu Cheguei e nos envie!

    00:00 / 00:00

    Cifra Club Pro

    Aproveite o Cifra Club com benefícios exclusivos e sem anúncios
    Cifra Club Pro
    Aproveite o Cifra Club com benefícios exclusivos e sem anúncios
    OK