Cifra Club

Abre o Portão Que Eu Cheguei

Gusttavo Lima

Cifra: Principal (violão e guitarra)
exibições 377.833
Tom: B
Solo:

E|--------------------------------|
B|-5/7-7-5-4-2-0------------------|
G|--------------------------------|
D|--------------------------------|
A|--------------------------------|
E|--------------------------------|

E|--------------------------------|
B|-5/7-7-5-4-2-0-0h2-2-2/4-0------|
G|--------------------------------|
D|--------------------------------|
A|--------------------------------|
E|--------------------------------|

E|--------------------------------|
B|-5-5-4-5-5/7-7------------------|
G|--------------------------------|
D|--------------------------------|
A|--------------------------------|
E|--------------------------------|

 B
Tá me achando com cara de bobo? 
Por que tá me ligando de novo? 
 E
Dessa vez eu só tô te atendendo pra dizer
Que ontem foi a nossa última vez
 B
Você deve se achar muito esperta, 
Toda vez com a mesma conversa
 E
Me ilude me leva no chão, 
                                              G#m
E quando vou dormir já estou com você na sua cama

           F#               E
Eu não consigo entender você, 
                                                G#m
Sempre me diz que é amor mas só me quer por prazer,
           F#                    E
Olha pra trás veja tudo o que fez, 
                      
Agora quer brincar comigo e não vai ter outra vez

 B
Tô cansando de sair no meio da noite e te satisfazer 
F#
E um minuto depois de matar minha vontade eu me arrepender
 G#m               F#                                E
Sair de madrugada, do meio da balada largo a minha vida pra vir ver você, 

Só pra vir ver você

 B
Cê sabe que eu sou louco por você e que me tem nas mãos
F#
E confesso que às vezes me pego esperando a sua ligação
 G#m              F#                    E
Tava fora de mim, esquece o que eu falei 
                          B
Abre o portão que eu cheguei


E|--------------------------------|
B|--------------------------------|
G|-9/11-11--9--6/8-6-4------------|
D|--------------------------------|
A|--------------------------------|
E|--------------------------------|

E|--------------------------------|
B|--------------------------------|
G|-9/11-11--9--6/8-6-4-4h6-6/8-8--|
D|--------------------------------|
A|--------------------------------|
E|--------------------------------|

E|--------------------------------|
B|--------------------------------|
G|--9-9-8-9-9/11-11---------------|
D|--------------------------------|
A|--------------------------------|
E|--------------------------------|


G#m        F#               E
Eu não consigo entender você, 
                                                G#m
Sempre me diz que é amor mas só me quer por prazer,
           F#                    E
Olha pra trás veja tudo o que fez, 
                      
Agora quer brincar comigo e não vai ter outra vez

 B
Tô cansando de sair no meio da noite e te satisfazer 
F#
E um minuto depois de matar minha vontade eu me arrepender
 G#m               F#                                E
Sair de madrugada, do meio da balada largo a minha vida pra vir ver você, 

Só pra vir ver você

 B
Você sabe que eu sou louco por você e que me tem nas mãos
F#
E confesso que às vezes me pego esperando a sua ligação
 G#m              F#                    E
Tava fora de mim, esquece o que eu falei 
                          B
Abre o portão que eu cheguei

E|--------------------------------|
B|--------------------------------|
G|-9/11-11--9--6/8-6-4------------|
D|--------------------------------|
A|--------------------------------|
E|--------------------------------|

E|--------------------------------|
B|--------------------------------|
G|-9/11-11--9--6/8-6-4-4h6-6/8-8--|
D|--------------------------------|
A|--------------------------------|
E|--------------------------------|

E|--------------------------------|
B|--------------------------------|
G|--9-9-8-9-9/11-11---------------|
D|--------------------------------|
A|--------------------------------|
E|--------------------------------|

 B
Tô cansando de sair no meio da noite e te satisfazer 
F#
E um minuto depois de matar minha vontade eu me arrepender
 G#m               F#                                E
Sair de madrugada, do meio da balada largo a minha vida pra vir ver você, 

Só pra vir ver você

 B
Você sabe que eu sou louco por você e que me tem nas mãos
F#
E confesso que as vezes me pego esperando a sua ligação
 G#m              F#                    E
Tava fora de mim, esquece o que eu falei 
                          B
Abre o portão que eu cheguei

E|------------------------------------------------------------------------| |------------|
B|--5/7--7--5--4----------5/7--7--5--4--------5--4-----5--4-----5/7-------| |--5--5/7----|
G|----------------6--4------------------6--4--------6--------6-------4----| |---------4--|
D|------------------------------------------------------------------------| |------------|
A|------------------------------------------------------------------------| |------------|
E|------------------------------------------------------------------------| |------------|
Acordes para:

    0 comentários

      mostrar mais comentários

      Conseguiu tocar?

      21tocaram2ainda não

      Grave um vídeo tocando Abre o Portão Que Eu Cheguei e mande pra gente!

      00:00 / 00:00
      outros vídeos desta música
      repetirqualidadeAutomático
      Outro vídeos desta música
        00:00 / 00:00
        OK