Cifra Club

Aprenda

Borbulhas de Amor

Gusttavo Lima

Cifra: Principal (violão e guitarra)
Tom: B
Base intro: ( E B9 F#m A9 B9 A9 B9 )

Solo intro:

Parte 1
E|-7-7-7-5-4-5-7--4-5-7-9--4-5-7-9-4-5-7--------------|
B|----------------------------------------------------|
G|----------------------------------------------------|
D|----------------------------------------------------|
A|----------------------------------------------------|
E|----------------------------------------------------|

(Part 2)
E|-9--9--7-5-7-9--5-7-9--10-11-11/14-14-14-14hp16-----|
B|-10-10-9-7-9-10-7-9-10-11-12-12/16-16-16-16---------|
G|----------------------------------------------------|
D|----------------------------------------------------|
A|----------------------------------------------------|
E|----------------------------------------------------|

(Parte 3)
E|----------------------------------------------------|
B|----------------------------------------------------|
G|-9/11-9-8-8h9-7/9-----------------------------------|
D|----------------------------------------------------|
A|----------------------------------------------------|
E|----------------------------------------------------|


 E
Tenho um coração
                   B9
Dividido entre a esperança e a razão
F#m
Tenho um coração
A9                    B9   Riff 1
Bem melhor que não tivera

E           Riff 2
Esse coração
                  B9                    Riff 3
Não consegue se conter ao ouvir sua voz
F#m         Riff 4
Pobre coração
A9                     B9  Riff 5
Sempre escravo da ternura

(Refrão)
                  E
Quem dera ser um peixe
                                 B9
Para em teu límpido aquário mergulhar
                                  F#m
Fazer borbulhas de amor pra te encantar
A9             B9       A9       B9   Riff 6
Passar a noite em claro, dentro de ti
    E                                     B9
Um peixe, para enfeitar de corais tua cintura
                                F#m  Riff 7
Fazer silhuetas de amor à luz da lua,
A9               B9   A9       B9
Saciar essa loucura, dentro de ti

(Base Solo 2: E B9 F#m A9 B9 A9 B9 )

Solo 2 (Parte 1)
E|-7-7-7-5-4-5-7--------------------------------------|
B|----------------------------------------------------|
G|---------------4-4-6-8/9--9--6/8-8-8-8-6-4-4--------|
D|---------------6-6-7-7/11-11-7/9-9-9-9-7-6-6--------|
A|----------------------------------------------------|
E|----------------------------------------------------|

(Parte 2)
E|-9--7-5-7-9--5-7-9--10-11-11/14-14-14-14hp16--------|
B|-10-10-9-7-9-10-7-9-10-11-12-12/16-16-16------------|
G|----------------------------------------------------|
D|----------------------------------------------------|
A|----------------------------------------------------|
E|----------------------------------------------------|

(Parte 3)
E|------11-9-7-7--------------------------------------|
B|----------------------------------------------------|
G|-9/11-11-9-8-8--------------------------------------|
D|----------------------------------------------------|
A|----------------------------------------------------|
E|----------------------------------------------------|

          Riff 8
E
Canta coração
                B9
Que esta alma necessita de ilusão
F#m
Sonha coração
A9                     B9   A9 B9
Não te enchas de amargura

 E          Riff 9
Esse coração
                 B9                    Riff 10
Não consegue se conter ao ouvir sua voz
F#m          Riff 4
Pobre coração
A9                  B9   A9 B9
Sempre escravo da ternura

(refrão)

            E     Riff 11
Quem dera ser um peixe
                                 B9
Para em teu límpido aquário mergulhar
                                  F#m   Riff 7
Fazer borbulhas de amor pra te encantar
A9             B9       A9       B9
Passar a noite em claro, dentro de ti
    E  Riff 12                         B9
Um peixe, para enfeitar de corais tua cintura
                                F#m
Fazer silhuetas de amor à luz da lua,
A9               B9   A9       B9
Saciar essa loucura, dentro de ti

C    D7       Bm             Em  D     C
Uma noite para unir-nos até o fim
        D7          Bm      Em  D     C
Cara a cara, beijo a beijo e viver
        D7            (E, na forma de F na 12º casa)
Para sempre dentro de ti


Riff 1
E|-9--9--7-7-5-5--------------------------------------|
B|-10-10-9-9-7-7-10-10-9-9----------------------------|
G|---------------11-11-9-9----------------------------|
D|----------------------------------------------------|
A|----------------------------------------------------|
E|----------------------------------------------------|

Riff 2
E|----------------------------------------------------|
B|----------------------------------------------------|
G|----------------------------------------------------|
D|-7-7/9----------------------------------------------|
A|----------------------------------------------------|
E|----------------------------------------------------|

Riff 3
E|-12/14-14-12-11-11-9--7-5---------------------------|
B|-14/16-16-14-12-12-10-9-7---------------------------|
G|----------------------------------------------------|
D|----------------------------------------------------|
A|----------------------------------------------------|
E|----------------------------------------------------|

Riff 4 
E|----------------------------------------------------|
B|----------------------------------------------------|
G|----------------------------------------------------|
D|----------------------------------------------------|
A|-----------4-2--------------------------------------|
E|-2-4-5-4-2------------------------------------------|

Riff 5
E|----------------------------------------------------|
B|-----------------------12hp13-----------------------|
G|----------------12--14------------------------------|
D|-------12----14-------------------------------------|
A|-12-14----14----------------------------------------|
E|----------------------------------------------------|

Riff 6
E|----------------------------------------------------|
B|-----------9-10-9-----------------------------------|
G|------9-11------------------------------------------|
D|-9-11-----------------------------------------------|
A|----------------------------------------------------|
E|----------------------------------------------------|

Riff 7
E|----------------------------------------------------|
B|------9-10-9----------------------------------------|
G|-9/11--------11-9-7-9-7h8---------------------------|
D|----------------------------------------------------|
A|----------------------------------------------------|
E|----------------------------------------------------|

Riff 8
E|----------------------------------------------------|
B|-----9----------------------------------------------|
G|----------------------------------------------------|
D|-7/9------------------------------------------------|
A|----------------------------------------------------|
E|----------------------------------------------------|

Riff 9
E|----------------------------------------------------|
B|-10/12-12-------------------------------------------|
G|-11/13-13-------------------------------------------|
D|----------------------------------------------------|
A|----------------------------------------------------|
E|----------------------------------------------------|

Riff 10
E|----------------------------------------------------|
B|-9-10-9---------------------------------------------|
G|--------11-9-9hp11----------------------------------|
D|-------------------11-9-9/11------------------------|
A|----------------------------------------------------|
E|----------------------------------------------------|

Riff 11
E|-16-16----------------------------------------------|
B|-17-17----------------------------------------------|
G|----------------------------------------------------|
D|----------------------------------------------------|
A|----------------------------------------------------|
E|----------------------------------------------------|

Riff 12
E|----------------------------------------------------|
B|------9-10-9----------------------------------------|
G|-9-11-----------------------------------------------|
D|----------------------------------------------------|
A|----------------------------------------------------|
E|----------------------------------------------------|
Colaboração e revisão:
  • Leonardo Pereira
  • Jeaan
137.351 exibições
    • ½ Tom
    • A
    • Bb
    • B
    • C
    • Db
    • D
    • Eb
    • E
    • F
    • F#
    • G
    • Ab
  • Adicionar à lista

    0 comentários

    Mostrar mais comentários

    Conseguiu tocar?

    4 Tocaram 0 Ainda não

    Grave um vídeo tocando Borbulhas de Amor e mande pra gente!

    00:00 / 00:00
    outros vídeos desta música
    repetir qualidade Automático
    Outros vídeos desta música
    00:00 / 00:00
    Automático
    OK