Cifra Club

Aprenda

Chuva de Amor

Gusttavo Lima

Cifra: Principal (violão e guitarra)
Tom: A
Intro: A  E  F#m  C#m  D  A  E  A  E  A
E|----------9------12----------------------9---------------10-9-------9--------------------------------------|
B|-------10---12------12-10------------------9--------9-10-------10-----12-10-9-12-10---10-9-----------------|
G|--9-11------------------------9-11-10-9------11--11---------------9------------------------11-9------------|
D|----------------------------11------------------------------------------------------------------12-11-9-7--|
A|-----------------------------------------------------------------------------------------------------------|
E|-----------------------------------------------------------------------------------------------------------|

A            E              F#m  D
Tomara que chova chuva de amor
A            E                    F#m  D
Para apagar a chama que em mim ficou
A            E            F#m  D
Quero que o vento me traga você
A                E                 F#m  D
Para matar a saudade que me faz sofrer
A        E             F#m                 D                 A
Quero sorrir, quero ficar, beijar os seus lábios, comigo sonhar
             B             E
Viver com você essa louca paixão
A            E              F#m
Quero te sentir, quero te amar
                D                   A
Beijar os seus lábios, vou me entregar
            E               A E
Tatuar seu nome no meu coração

( A  E  F#m  C#m  D  A  E  A  E  A )
E|----------9------12-------------------------9---------------10-9-------9--------------------------------------|
B|-------10---12------12-10---------------------9--------9-10-------10-----12-10-9-12-10---10-9-----------------|
G|--9-11---------------------------9-11-10-9------11--11---------------9------------------------11-9------------|
D|-------------------------------11------------------------------------------------------------------12-11-9-7--|
A|--------------------------------------------------------------------------------------------------------------|
E|--------------------------------------------------------------------------------------------------------------|

A            E              F#m  D
Tomara que chova chuva de amor
A            E                    F#m  D
Para apagar a chama que em mim ficou
A            E            F#m  D
Quero que o vento me traga você
A                E                 F#m  D
Para matar a saudade que me faz sofrer
A        E             F#m                 D                 A
Quero sorrir, quero ficar, beijar os seus lábios, comigo sonhar
             B             E
Viver com você essa louca paixão
A            E              F#m
Quero te sentir, quero te amar
                D                   A
Beijar os seus lábios, vou me entregar
            E               A  E
Tatuar seu nome no meu coração
A        E                     F#m         D                 A
Quero sorrir, quero ficar, beijar os seus lábios, comigo sonhar
             B                E
Viver com você essa louca paixão
A            E              F#m
Quero te sentir, quero te amar
                D                   A
Beijar os seus lábios, vou me entregar
            E               A  E  A
Tatuar seu nome no meu coração
A           E               F#m  D
Tatuar seu nome no meu coração
A           E               A
Tatuar seu nome no meu coração
Colaboração e revisão:
  • atos
25.992 exibições
    • ½ Tom
    • A
    • Bb
    • B
    • C
    • Db
    • D
    • Eb
    • E
    • F
    • F#
    • G
    • Ab
  • Adicionar à lista

    0 comentários

    Mostrar mais comentários

    Conseguiu tocar?

    2 Tocaram 1 Ainda não

    Grave um vídeo tocando Chuva de Amor e mande pra gente!

    00:00 / 00:00
    outros vídeos desta música
    repetir qualidade Automático
    Outros vídeos desta música
    00:00 / 00:00
    Automático
    OK