Cifra Club

Aprenda

Dá Preferência Pra Mim (part. Thiago Brava)

Gusttavo Lima

Cifra: Principal (violão e guitarra)
Tom: Bb
[Intro] Bb9  F  Cm  Eb9

           Bb9                 F
E|------------------------------------------|
B|-6-6-6-----6-6-6-6/8\6--------------------|
G|-------7-7-------------7-3-3/5------------|
D|------------------------------------------|
A|------------------------------------------|
E|------------------------------------------|

               Cm               Eb9
E|------------------------------------------|
B|-6-6-6-6----------6-6-6-6-----------------|
G|---------8-7-8~-----------8-7-8~----------|
D|------------------------------------------|
A|------------------------------------------|
E|------------------------------------------|

           Bb9
E|------------------------------------------|
B|------------------------------------------|
G|------------------------------------------|
D|------------------------------------------|
A|-----1---1~-------------------------------|
E|-1-3---3----------------------------------|

[Primeira Parte]

   Bb9        F/A        Cm         Eb9
E|---------x----------x----------x--------6~|
B|-------1-x--------6-x--------4-x--------6~|
G|-----3---x------5---x------5---x------8---|
D|---3-----x----3-----x----5-----x----8-----|
A|-1-------x----------x--3-------x--6-------|
E|---------x--5-------x----------x----------|

   Bb9        F/A        Cm         Eb9
E|-------1-1-------------------3-3--6-------|
B|-------1-1--------6-6--------4-4--6-------|
G|-----3---3------5---5------5---5--8-------|
D|---3----------3-----3----5--------8-------|
A|-1-------1-------------3-------3--6-------|
E|------------5-------5---------------------|

Bb9                          F/A
Oi, boa noite como é que cê tá
                        Cm
Eu não quero te atrapalhar 
                         Eb9
Eu só vim pra me apresentar 
                                  Bb9
tudo bem boa noite como é que cê ta 
                        F/A
Eu preciso falar com você
                             Cm  Eb9
Rapidinho eu não vou nem render 

[Pré-Refrão]

           Cm
Fica à vontade
         Eb9                          
Sei que tá na primeira bebida 
               F   
Esperando as amigas,  então 
            Cm
Fique à vontade 
                  Eb9   
A primeira impressão 
                         F
É que fica qualquer novidade 

Você me avisa 
 Eb     F
Já sabe 

[Refrão]

           Bb                     F/A
Se for beijar na boca hoje faz assim 
                    Cm
Dá preferência pra mim
                    Eb  
Dá preferência pra mim 
             Bb  
Não esquece não 
                           F/A
Que eu fui o primeiro a pedir 
                    Cm  
Dá preferência pra mim
                    Eb
Dá preferência pra mim

           Bb                      F/A
Se for beijar na boca hoje faz assim 
                    Cm  
Dá preferência pra mim
                    Eb  
Dá preferência pra mim 
             Bb  
Não esquece não 
                           F/A
Que eu fui o primeiro a pedir 
                    Cm                         
Dá preferência pra mim
 Eb                 Bb
Dá preferência pra mim

( Bb9  F  Cm  Eb9 )
( Bb9  F  Cm  Eb9 )

           Bb9                 F
E|------------------------------------------|
B|-6-6-6-----6-6-6-6/8\6--------------------|
G|-------7-7-------------7-3-3/5------------|
D|------------------------------------------|
A|------------------------------------------|
E|------------------------------------------|

               Cm               Eb9
E|------------------------------------------|
B|-6-6-6-6----------6-6-6-6-----------------|
G|---------8-7-8~-----------8-7-8~----------|
D|------------------------------------------|
A|------------------------------------------|
E|------------------------------------------|

           Bb9                 F
E|------------------------------------------|
B|-6-6-6-----6-6-6-6/8\6--------------------|
G|-------7-7-------------7-3-3/5------------|
D|------------------------------------------|
A|------------------------------------------|
E|------------------------------------------|

               Cm               
E|------------------------------------------|
B|-6-6-6-6----------6-6-6-6-----------------|
G|---------8-7-8~-----------8-7-------------|
D|------------------------------------------|
A|------------------------------------------|
E|------------------------------------------|

   Eb9             Cm
E|------------------------------------------|
B|-6/8-6------------------------------------|
G|-------8-7-5-3-3/5------------------------|
D|------------------------------------------|
A|------------------------------------------|
E|------------------------------------------|

[Pré-Refrão]

           Cm
Fica à vontade
         Eb9                          
Sei que tá na primeira bebida 
               F   
Esperando as amigas,  então 
            Cm
Fique à vontade 
                  Eb9   
A primeira impressão 
                         F
É que fica qualquer novidade 

Você me avisa 
 Eb     F
Já sabe 

[Refrão]

           Bb                     F/A
Se for beijar na boca hoje faz assim 
                    Cm
Dá preferência pra mim
                    Eb  
Dá preferência pra mim 
             Bb  
Não esquece não 
                           F/A
Que eu fui o primeiro a pedir 
                    Cm  
Dá preferência pra mim
                    Eb
Dá preferência pra mim

           Bb                      F/A
Se for beijar na boca hoje faz assim 
                    Cm  
Dá preferência pra mim
                    Eb  
Dá preferência pra mim 
             Bb  
Não esquece não 
                           F/A
Que eu fui o primeiro a pedir 
                    Cm                         
Dá preferência pra mim
 Eb                 Bb
Dá preferência pra mim

[Final] Bb9  F  Cm  Eb9  Bb9

           Bb9                 F
E|------------------------------------------|
B|-6-6-6-----6-6-6-6/8\6--------------------|
G|-------7-7-------------7-3-3/5------------|
D|------------------------------------------|
A|------------------------------------------|
E|------------------------------------------|

               Cm               
E|------------------------------------------|
B|-6-6-6-6----------6-6-6-6-----------------|
G|---------8-7-8~-----------8-7-------------|
D|------------------------------------------|
A|------------------------------------------|
E|------------------------------------------|

   Eb9             Bb9
E|------------------------------------------|
B|-6/8-6------------------------------------|
G|-------8-7-5-3-3--------------------------|
D|------------------------------------------|
A|------------------------------------------|
E|------------------------------------------|
Colaboração e revisão:
  • Lucas Kappaun
5.603 exibições
    • ½ Tom
    • A
    • Bb
    • B
    • C
    • Db
    • D
    • Eb
    • E
    • F
    • F#
    • G
    • Ab
  • Adicionar à lista

    0 comentários

    Mostrar mais comentários

    Conseguiu tocar?

    0 Tocaram 1 Ainda não

    Grave um vídeo tocando Dá Preferência Pra Mim (part. Thiago Brava) e mande pra gente!

    00:00 / 00:00
    outros vídeos desta música
    repetir qualidade Automático
    Outros vídeos desta música
    00:00 / 00:00
    Automático
    OK