Cifra Club

Aprenda

Eu Vou Pra Igreja

Gusttavo Lima

Cifra: Principal (violão e guitarra)
tom: E
[Intro] E  B9  F#m  Am

E|------------------------------------------|
B|------------------------------------------|
G|------------------------------------------|
D|---------6/7-7-6p4-6---------4/6-6-4p2-4--|
A|------------------------------------------|
E|-5/7-7-7--------------5/7-7-7-------------|

E|------------------------------------------|
B|-10-10-10\9-7-5--5/7--5-5\2---------------|
G|------------------------------------------|
D|------------------------------------------|
A|------------------------------------------|
E|------------------------------------------|

E|------------------------------------------|
B|-10-10-10\9-7-5--5/7--5-5\1---------------|
G|------------------------------------------|
D|------------------------------------------|
A|------------------------------------------|
E|------------------------------------------|

[Primeira Parte]

            E                                     
Chegou pra mim, beijando minha boca
             B9
Me passando mel
                                        F#m
Resolveu meus problemas dentro de um motel
                       E/G#   A
Tava tão gostoso que até deu medo

         E                                         
E eu surtei, tinha você nas mãos
                B9
Mas eu não segurei
                                      F#m
Não vou mentir, confesso que eu me achei
                                      A
Falou que não voltava e eu não botei fé
                                              
Agora quero de volta, e cê não quer
           B9
Não quer, não quer

[Refrão]

              E
Eu vou pra igreja
                        B9
Pedir pra te trazer de volta 

Ou te arrancar de mim
        G#m7  C#m
Eu vou pra igreja
                      A                        
Porque na base da cerveja 
                     B9
Eu não aceito nosso fim

              E
Eu vou pra igreja
                        B9
Pedir pra te trazer de volta ou te arrancar de mim
        G#m7  C#m
Eu vou pra igreja
                      A                        
Porque na base da cerveja 
                     B9
Eu não aceito nosso fim
                     E
Meu Deus, tem dó de mim

[Solo] B9  F#m  Am 

E|------------------------------------------|
B|------------------------------------------|
G|------------------------------------------|
D|---------6/7-7-6p4-6---------4/6-6-4p2-4--|
A|------------------------------------------|
E|-5/7-7-7--------------5/7-7-7-------------|

E|------------------------------------------|
B|-10-10-10\9-7-5--5/7--5-5\2---------------|
G|------------------------------------------|
D|------------------------------------------|
A|------------------------------------------|
E|------------------------------------------|

E|------------------------------------------|
B|-10-10-10\9-7-5--5/7--5-5\1---------------|
G|------------------------------------------|
D|------------------------------------------|
A|------------------------------------------|
E|------------------------------------------|

[Primeira Parte]

         E                                         
E eu surtei, tinha você nas mãos
                B9
Mas eu não segurei
                                      F#m
Não vou mentir, confesso que eu me achei
                                      A
Falou que não voltava e eu não botei fé
                                              
Agora quero de volta, e cê não quer
           B9
Não quer, não quer

[Refrão]

              E
Eu vou pra igreja
                        B9
Pedir pra te trazer de volta 

Ou te arrancar de mim
        G#m7  C#m
Eu vou pra igreja
                      A                        
Porque na base da cerveja 
                     B9
Eu não aceito nosso fim

              E
Eu vou pra igreja
                        B9
Pedir pra te trazer de volta 

Ou te arrancar de mim
        G#m7  C#m
Eu vou pra igreja
                      A                        
Porque na base da cerveja 
                     B9
Eu não aceito nosso fim

              E   F#m  E/G#
Eu vou pra igreja
                        B9
Pedir pra te trazer de volta ou te arrancar de mim
        G#m7  C#m
Eu vou pra igreja
                      A                        
Porque na base da cerveja 
                     B9
Eu não aceito nosso fim
                     E
Meu Deus, tem dó de mim
Composição de Diego Silveira / Elvis Elan / Henrique Casttro / LARI FERREIRA
Colaboração e revisão:
  • Thiago Almeida
  • Emerson Pezetti
  • Jhonata Felipe
9.098 exibições
    • ½ Tom
    • A
    • Bb
    • B
    • C
    • Db
    • D
    • Eb
    • E
    • F
    • F#
    • G
    • Ab
  • Adicionar à lista

    0 comentários

    Ver todos os comentários

    Conseguiu tocar?

    2 Tocaram 0 Ainda não

    Grave um vídeo tocando Eu Vou Pra Igreja e nos envie!

    00:00 / 00:00
    outros vídeos desta música
    repetir qualidade Automático
    Outros vídeos desta música
    00:00 / 00:00
    Automático

    Cifra Club Pro

    Aproveite o Cifra Club com benefícios exclusivos e sem anúncios
    Cifra Club Pro
    Aproveite o Cifra Club com benefícios exclusivos e sem anúncios
    OK