Notificações Amigos pendentes

      Gusttavo Lima

      Inventor Dos Amores

      1.914.667 exibições
      Tom: F
      Intro: Gm  Bb F  C5(9)
      
      Parte 1:
      
      E|------5-6-------5-6----------8-10------------------|
      B|-8-8-------8-8----- -11-11-------------------------|
      G|---------------------------------------------------|
      D|---------------------------------------------------|
      A|---------------------------------------------------|
      E|---------------------------------------------------|
      
      
      Parte 2:
      
      E|----------10-10-8--6-6/8---6/8--8--8--6-5-----8----|
      B|-10-10/11-11-11-10-8-8/10--8/10-10-10-8-6----------|
      G|------------------------------------------7/9------|
      D|---------------------------------------------------|
      A|---------------------------------------------------|
      E|---------------------------------------------------|
      
      
      Parte 3:
      
      E|-----6p5-------------------------------------------|
      B|---------8-6-6/8~----------------------------------|
      G|-5/7-----------------------------------------------|
      D|---------------------------------------------------|
      A|---------------------------------------------------|
      E|---------------------------------------------------|
      
      
      Gm
        Eu já não sei mais o que faço com meu coração
      Bb
        Eu não tenho mais o controle da situação
      F                                         C5(9)
        Todo caminho que eu sigo me leva a você...
      
      Gm
        E quanto mais tento fugir  eu me aproximo mais
      Bb
        Não tem mais jeito  já se foi  razão ficou pra trás
      F                                            C5(9)
        Eu já não sigo meus instintos  medo de sofrer...
      
      Gm                                     Bb
        E se eu me entregar  será que vai rolar?
                                              F    C5(9)
      Sou um doente  apaixonado  e ela tem razão...ão
      Gm                                       Bb
        Se for pra ser assim eu vou cuidar de mim
                                           C5(9)
      Eu penso em desistir  e ela diz que não..
      
      Refrão:
      F
        Meu coração apaixonado atormentado em dores
      C5(9)                             Bb5(9)   F
        Procura entre os outros o inventor dos amores
      Gm                    Dm                 C5(9)    Bb5(9) C5(9)
        Espero que essa paixão nunca me deixe mal
      F
        Eu quero te amar e também quero ser amado
      C5(9)                        Bb5(9)    F
        Desejo ser o seu amor  e não o seu escravo
      Gm                    Dm                    C5(9)
        Espero que essa paixão não tenha ponto final
              Bb5(9)  C5(9)          F
        Se não  Adeus   tchau  tchau.
      
      (Intro)
      (Jorge e Mateus)
      (Segunda Parte)
      
      Gm                                      Bb
      E se eu me entregar  será que vai rolar?
                                              F    C5(9)
      Sou um doente  apaixonado  e ela tem razão...ão
      Gm                                       Bb
      Se for pra ser assim eu vou cuidar de mim
                                           C5(9)
      Eu penso em desistir  e ela diz que não..
      
      (Refrão)
      
      Final: F  Bb5(9) C5(9) F
        Composição: Gusttavo LimaColaboração e revisão:
        • hugo.milani.7
        • izabella.menezes
        • mfmbs
        • weslley_barbosa
        • +12

        Comentários 133

        140 .
        • Werbson Werbson: Em 11/09/2015 10:13

          Muito boa, e fácil por sinal

        • jose augusto jose augusto: Em 01/10/2014 10:27

          O fofão melhorou demais no canto, nesta época não era bom mas agora ele canta muito!

        • Robert Robert: Em 17/08/2014 12:34

          Coloca capo na primeira casa e o tom em E que fica mesma coisa só diminui as pestanas.

        • gustavo gustavo : Em 15/07/2014 15:48

          fica boa no tom de mi maior

        • gabriel.desouza.39589 gabriel.desouza.39589: Em 19/04/2014 11:44

          o fofão impolga kkk

        • Tulio.Cesar.Nunes Tulio.Cesar.Nunes: Em 18/04/2014 11:31


          1:54 participacao especial do MIKEY? hahahahahhhahahah

        • maria eduarda maria eduarda: Em 25/02/2014 17:18

          desafinado em fofao

        • xkabal xkabal: Em 18/11/2013 22:19

          Vendo essa aula " Antiga ", da para ver o quanto o Fofão evoluiu no canto

        • mortadela123456 mortadela123456: Em 07/11/2013 22:51

          Ficou show a video aula ...

        140 cancelar
        0:00 / 0:00
        1 versão de Guitar Proformatodownloadscontribuição
        play/pausefechar subir/descer velocidade
        6ª corda E5ª corda A4ª corda D3ª corda G2ª corda B1ª corda E
          acordes
          publicidade
          fechar
          ok