Notificações Amigos pendentes

      Gusttavo Lima

      Jejum de Amor

      265.025 exibições
      Tom: E
      Intro: E/B
             C#m  B9  A9  B9  E  B/D#
             C#m  B9  A9  B9  E
      
      Solo :
      
      
      E|--------------------------------------|
      B|----------5-4-4/5--5-5-5-5-2/4-4-4-2--|
      G|--4-4-4-4---------------------------4-|
      D|--------------------------------------|
      A|--------------------------------------|
      E|--------------------------------------|
      
      
      E|----------------------|
      B|----------------------|
      G|-4-6-4h6p4-4-4/6------|
      D|----------7-----4-4/6-|
      A|----------------------|
      E|----------------------|
      
      
      E|-----------------------------------------|
      B|-----------5-4-5/7\5--5-5-5-5-2/4-4-4-2--|
      G|--4-4-4-4------------------------------4-|
      D|-----------------------------------------|
      A|-----------------------------------------|
      E|-----------------------------------------|
      
      
      E|----------------------|
      B|----------------------|
      G|--------4-4/6-4-------|
      D|-6-7-6-7-------4-4/6--|
      A|----------------------|
      E|----------------------|
      
      
      
       B/D#         C#m               B9
      Não sou de ficar mais de uma semana sem amor
       A9            B9            E
      Sem um beijo, sem um corpo, tá difícil
       B/D#          C#m           B9
      Deixa eu te falar, eu vou fazer jejum de amor
        A9
      Pra provar o que eu sinto
      
      E                B/D#      C#m
       Quer saber? Eu tô arrependido
                                 B/D#
      Porque não falei no seu ouvido
                             A9
      As frases de amor que não falei
                     E
      Em nosso cobertor
            B/D#      C#m                   B/D#
      Sentimento proibido, até parece impossível
                           A9                       B9
      Quer saber? Eu necessito ter de volta seu calor
      
      ( A/C#  B/D# )
      
      Refrão:
      
                  C#m
      Sua boca é minha
                A9
      Domina a minha
                        E                        B9
      E o que é que as duas estão fazendo tão sozinhas?
                  C#m
      Sua boca é minha
                A9
      Domina a minha
                        E                        B9
      E o que é que as duas estão fazendo tão sozinhas?
                        C#m
      Ai, ai, ai, boca minha
      
      Solo: B9  A9  B9  E  B/D#
            C#m  B9  A9  B9  E
      
      
      E|--------------------------------------|
      B|----------5-4-4/5--5-5-5-5-2/4-4-4-2--|
      G|--4-4-4-4---------------------------4-|
      D|--------------------------------------|
      A|--------------------------------------|
      E|--------------------------------------|
      
      
      E|----------------------|
      B|----------------------|
      G|-4-6-4h6p4-4-4/6------|
      D|----------7-----4-4/6-|
      A|----------------------|
      E|----------------------|
      
      
      E|-----------------------------------------|
      B|-----------5-4-5/7\5--5-5-5-5-2/4-4-4-2--|
      G|--4-4-4-4------------------------------4-|
      D|-----------------------------------------|
      A|-----------------------------------------|
      E|-----------------------------------------|
      
      
      E|----------------------|
      B|----------------------|
      G|--------4-4/6-4-------|
      D|-6-7-6-7-------4-4/6--|
      A|----------------------|
      E|----------------------|
      
      
       B/D#         C#m               B9
      Não sou de ficar mais de uma semana sem amor
       A9            B9            E
      Sem um beijo, sem um corpo, tá difícil
       B/D#          C#m           B9
      Deixa eu te falar, eu vou fazer jejum de amor
        A9
      Pra provar o que eu sinto
      
      E                B/D#      C#m
       Quer saber? Eu tô arrependido
                                 B/D#
      Porque não falei no seu ouvido
                             A9
      As frases de amor que não falei
                     E
      Em nosso cobertor
      
            B/D#      C#m                   B/D#
      Sentimento proibido, até parece impossível
                           A9                       B9
      Quer saber? Eu necessito ter de volta seu calor
      
      ( A/C#  B/D# )
      
      Refrão:
      
                  C#m
      Sua boca é minha
                A9
      Domina a minha
                        E                        B9
      E o que é que as duas estão fazendo tão sozinhas?
                  C#m
      Sua boca é minha
                A9
      Domina a minha
                        E                        B9
      E o que é que as duas estão fazendo tão sozinhas?
                  C#m
      Sua boca é minha
                A9
      Domina a minha
                        E                        B9
      E o que é que as duas estão fazendo tão sozinhas?
                        C#m
      Ai, ai, ai, boca minha
      
      Final: B9  A9  B9  E  B/D#
             C#m  B9  A9  B9  E
      
      
      E|--------------------------------------|
      B|----------5-4-4/5--5-5-5-5-2/4-4-4-2--|
      G|--4-4-4-4---------------------------4-|
      D|--------------------------------------|
      A|--------------------------------------|
      E|--------------------------------------|
      
      
      E|----------------------|
      B|----------------------|
      G|-4-6-4h6p4-4-4/6------|
      D|----------7-----4-4/6-|
      A|----------------------|
      E|----------------------|
      
      
      E|-----------------------------------------|
      B|-----------5-4-5/7\5--5-5-5-5-2/4-4-4-2--|
      G|--4-4-4-4------------------------------4-|
      D|-----------------------------------------|
      A|-----------------------------------------|
      E|-----------------------------------------|
      
      
      E|----------------------|
      B|----------------------|
      G|--------4-4/6-4-------|
      D|-6-7-6-7-------4-4/6--|
      A|----------------------|
      E|----------------------|
      
        Composição: fred lielColaboração e revisão:
        • deivid
        • Jeaan
        • Henrique
        • Lei

        Comentários 17

        140 .
        • adriano adriano: Em 09/06/2016 14:55

          cade a video aula da musica ??? :D

        • oberdan oberdan: Em 25/05/2016 18:03

          Vídeo aula por favor!!!! Todas do buteco do Gustavão ta massa já :D

        • Víctor Víctor: Em 01/03/2016 13:55

          Gostaria de vídeo aula - Poderia fazer ela simplificada por favor, ajuda muito os iniciantes.

        • deivid deivid: Em 17/02/2016 11:47

          Vão em variar acorde, coloquem A/C# na última forma, B/D# na 2ª forma, e E5 na 7ª forma.

        • Rômulo Rômulo: Em 04/02/2016 08:42

          Vídeo aula plz

        • sebastião sebastião: Em 25/01/2016 18:11

          top essa musica viu

        • ederson ederson: Em 19/10/2015 19:22

          Façam a video aula por favor !!!!! a musica é muito boa.

        • zeca zeca: Em 04/10/2015 09:08

          poderia fazer uma video aula

        • zezedeuberaba zezedeuberaba: Em 28/09/2015 18:17

          Gustavo, esta canção ficou muito legal. Parabéns|||

        • Rodrigo Rodrigo: Em 17/09/2015 12:48

          Façam video aula dessa musica também, por favor ... Fazendo o maior sucesso.

        140 cancelar

        conseguiu tocar?

        • •••

        covers

        Grave um vídeo tocando Jejum de Amor e mande pra gente!

        Ex.: http://www.youtube.com/watch?v=0IvSvIwGdwk
        ver covers de outras músicas »
        0:00 / 0:00

        Capítulos

          2 versões de violão dificuldade exibições contribuição e correção
          2 versões de guitarra dificuldade exibições contribuição e correção
          2 versões de cavaco dificuldade exibições contribuição e correção
          2 versões de teclado dificuldade exibições contribuição e correção
          play/pausefechar subir/descer velocidade
          6ª corda E5ª corda A4ª corda D3ª corda G2ª corda B1ª corda E
            acordes
            publicidade
            fechar
            ok