Cifra Club

Mundo de Ilusões

Gusttavo Lima

Cifra: Principal (violão e guitarra)
exibições 200.002
Tom: C
[Intro]  C  G  F

Parte 1 de 2

E|---3---0h3p0--0-0h3-3-3-----------------------------|
B|------------------------1-1-1h3~--------------------|
G|-0---0----------------------------------------------|
D|----------------------------------------------------|
A|----------------------------------------------------|
E|----------------------------------------------------|

Parte 2 de 2

E|---3------------------------------------------------|
B|-------3~------6--5--3--1--1h3----------------------|
G|-0---0----------------------------------------------|
D|-----------5/7----5--3--2--2h3----------------------|
A|----------------------------------------------------|
E|----------------------------------------------------|

[Primeira Estrofe – Primeira Parte]

Parte 1 de 4

   Dm/A
E|------------------------------------------|
B|------------------------------------------|
G|------------------------------------------|
D|-----3-----3-----3-----3------------------|
A|---5-----5-----5-----3--------------------|
E|-5-----5-----5-----5----------------------|

Parte 2 de 4

   F5
E|------------------------------------------|
B|------------------------------------------|
G|------------------------------------------|
D|-----3-----3-----3-----3------------------|
A|---3-----3-----3-----3--------------------|
E|-1-----1-----1-----1----------------------|

Parte 3 de 4

   C5/G
E|------------------------------------------|
B|------------------------------------------|
G|------------------------------------------|
D|-----5-----5-----5-----5------------------|
A|---3-----3-----3-----3--------------------|
E|-3-----3-----3-----3----------------------|

Parte 4 de 4

   G5/D
E|------------------------------------------|
B|-3-----3-----1/3--------------------------|
G|---0-----0-------4------------------------|
D|-----0-----0------------------------------|
A|------------------------------------------|
E|------------------------------------------|

Dm/A
Ei, por que tá me ligando 
               F5
Em plena madrugada
                                   C5/G
Se entre nós dois não existe mais nada
                                G5/D
Quer fazer com ele o que fez comigo

[Segunda Estrofe – Primeira Parte]

Dm
Ei, será que você não
               F
Consegue ser fiel
                                  C
Tá falando comigo dentro de um motel
                           G
Enganando ele como me enganou

[Pré-refrão]

                   Dm
Não vai ser dessa vez
                                     F
Que vai fazer com ele o que você me fez
                                  C
Por favor, me escute logo de uma vez
                           G
Seu amor é um mundo de ilusões
                        F   G
Brincando com dois corações

[Refrão]

C
  Será que dentro do seu peito
                G
Não tem coração
                                   Dm
E a sua cabeça só pensa em traição
                                 F
Sai pra lá com esse seu amor bandido

E me traiu com ele
                  C
Quer trair ele comigo

                            G
Uô uô, você não sabe dar valor
                            Dm
Uô uô, agora perdeu o meu amor
                            F
Uô uô, e vai perder ele também

Não deu certo comigo
                     C
Não dá certo com ninguém

                            G
Uô uô, você não sabe dar valor
                            Dm
Uô uô, agora perdeu o meu amor
                            F
Uô uô, e vai perder ele também
                 G
Não deu certo comigo
                      C  G  Dm  F  G
Não dá certo com ninguém

[Pré-refrão]

                   Dm
Não vai ser dessa vez
                                     F
Que vai fazer com ele o que você me fez
                                  C
Por favor, me escute logo de uma vez
                           G
Seu amor é um mundo de ilusões
                        F   G
Brincando com dois corações

[Refrão]

C
  Será que dentro do seu peito
                G
Não tem coração
                                   Dm
E a sua cabeça só pensa em traição
                                 F
Sai pra lá com esse seu amor bandido

E me traiu com ele
                  C
Quer trair ele comigo

                            G
Uô uô, você não sabe dar valor
                            Dm
Uô uô, agora perdeu o meu amor
                            F
Uô uô, e vai perder ele também

Não deu certo comigo
                     C
Não dá certo com ninguém

                            G
Uô uô, você não sabe dar valor
                            Dm
Uô uô, agora perdeu o meu amor
                            F
Uô uô, e vai perder ele também

Não deu certo comigo
                     C  G  F  G  C
Não dá certo com ninguém
Acordes para:

    0 comentários

    mostrar mais comentários

    Conseguiu tocar?

    34 tocaram 5 ainda não

    Grave um vídeo tocando Mundo de Ilusões e mande pra gente!

    00:00 / 00:00
    outros vídeos desta música
    repetir qualidade Automático
    Outros vídeos desta música
    00:00 / 00:00
    Automático
    Capítulos
    • Tocando a música
    • Apresentação / Equipamentos
    • Acordes introdução e primeira estrofe
    • Tocando introdução e primeira estrofe
    • Dedilhado primeira estrofe
    • Dedilhado primeira estrofe- Parte 1 de 4
    • Dedilhado primeira estrofe- Parte 2 de 4
    • Dedilhado primeira estrofe- Parte 3 de 4
    • Dedilhado primeira estrofe - Parte 4 de 4
    • Dicas segunda estrofe
    • Acorde segunda estrofe
    • Tocando segunda estrofe e pré-refrão
    • Ritmo segunda estrofe e pré-refrão
    • Tocando refrão
    • Ritmo refrão
    • Dicas repetições
    • Tocando repetições
    • Tocando solo introdução
    • Ensinando solo introdução
    • Ensinando solo introdução - Parte 1 de 2
    • Ensinando solo introdução - Parte 2 de 2
    • Encerramento
    OK