Cifra Club

Na Hora de Amar

Gusttavo Lima

Cifra: Principal (violão e guitarra)
tom: Em
[Intro] Em9  C9(11+)  D9(11)

[Solo]

E|-----------x-----------x------------x----------------|
B|----7-8--7-x----5-5--7-x---7h8-7----x----------------|
G|-/9-7-7--7-x-x--5-5--7-x-x-7h9-7--9-x-x--7/9--7------|
D|-/9--------x-----------x----------9-x----7/9--7------|
A|-----------x-----------x------------x----------------|
E|-----------x-----------x------------x----------------|

[Base da Intro]

[Parte 1 De 2]
  Em9                 C9(11+)
E|---------x------------------x-------------|
B|---------x----------------3-x-------------|
G|-------0-x--------------0---x-------------|
D|-----4---x--x---4-----4-----x--x---4------|
A|---2-----x----2-----3-------x----3--------|
E|-0-------x------------------x-------------|

[Parte 2 De 2]
  D9(11)                 
E|---------x----------------0-x-------------|
B|-------3-x------------------x-------------|
G|-----0---x--------------0---x-------------|
D|---4-----x--x---4-----4-----x-------------|
A|-5-------x----5-----5-------x-0-----------|
E|---------x------------------x---3-2-------|

Parte 2 De 2[Variação]
  D9(11)                 
E|---------x----------------0---------------|
B|-------3-x--------------------------------|
G|-----0---x--------------0-----------------|
D|---4-----x--x---4-----4-------------------|
A|-5-------x----5-----5---------------------|
E|---------x--------------------------------|

[Primeira Parte]

       Em           Am7      D2
Teu olhar sempre está muito longe
         Em          Am7      D2
Em um lugar que se chama solidão
            Em    C            D2   
Chego a pensar, que você se esconde
             A2
Da minha paixão

[Segunda Parte]

[Parte 1 De 2]
  Em                  C
E|---------x------------------x-------------|
B|---------x----------------3-x-------------|
G|-------0-x--------------0---x-------------|
D|-----4---x--x---4-----4-----x--x---4------|
A|---2-----x----2-----3-------x----3--------|
E|-0-------x------------------x-------------|

[Parte 2 De 2]
  D                 
E|---------x----------------0-x-------------|
B|-------3-x------------------x-------------|
G|-----0---x--------------0---x-------------|
D|---4-----x--x---4-----4-----x-------------|
A|-5-------x----5-----5-------x-0-----------|
E|---------x------------------x---3-2-------|

Parte 2 De 2[Variação]
  D                 
E|---------x------------------x-------------|
B|-------3-x----------------3-x-------------|
G|-----0---x--------------0---x-------------|
D|---4-----x--x---4-----4-----x-------------|
A|-5-------x----5-----5-------5\------------|
E|---------x--------------------------------|

          Em9        C9(11+)  D9(11)
Sempre a voar, pensamento distante
            Em9   C9(11+)       D9(11)
E eu me pergunto O que foi que fiz?
           Em9     C9(11+)      D9(11)
Mas são palavras que ninguém responde 
             A2  Am7
Te vejo infeliz

[Refrão]

             D2           A2
Você deve estar com medo de contar
          Bm              G
Que seu amor, por mim acabou
           Em  Em/F#  G       A2
Sempre fingiu,       nada sentiu
             Bm  Bm/A
Na hora de amar

[Terceira Parte]

           Em         C
Eu vejo o Sol se afastando 
        D2
Do horizonte
         Em       C            D2
Igual você que se escondeu de mim
             Em   
Não sei porque 
     C                D2
Um amor que era tão grande
               A2  Am7
Foi ficando assim

[Refrão]

Frase 01
                       Em
E|-0-------------0--0--0--0--0--------------|
B|---3-0---------0--0--0--0--0--------------|
G|-------2-0-2---0--0--0--0--0--------------|
D|---------------2--2--2--2--2--------------|
A|---------------2--2--2--2--2--------------|
E|---------------0--0--0--0--0--------------|
                 ↓  ↓  ↓  ↓  ↑

Frase 02
E|---------2------5/7-7---------------------|
B|-----3-5---3/5----------------------------|
G|-2/4--------------------------------------|
D|------------------------------------------|
A|------------------------------------------|
E|------------------------------------------|

             D2           A2
Você deve estar com medo de contar
          Bm              G
Que seu amor, por mim acabou
           Em  Em/F#  G       A2
Sempre fingiu,       nada sentiu
             D2
Na hora de amar
          A2
Tem medo de contar
          Bm              G
Que seu amor, por mim acabou
          (Frase 1)     A2
Sempre fingiu, nada sentiu
             Bm (Frase 02)  Bm/A
Na hora de amar

[Quarta Parte]

Em          G            D2      C
   A gente sente quando tudo acabou
Em             G           D2
   Quando o encanto da paixão sumiu
Em          G            D2    A2
   Um sentimento que só meu coração 
       C  A2
Descobriu

[Refrão Final]

Frase 03
                         Cm
E|---------------3--3--3--3--3--------------|
B|---------------4--4--4--4--4--------------|
G|-5-3-----------5--5--5--5--5--------------|
D|-----5-3-1-3---5--5--5--5--5--------------|
A|---------------3--3--3--3--3--------------|
E|------------------------------------------|
                       ↓  ↓  ↓  ↓  ↑

[Arranjo Final]
   Cm
E|------------------3-----------------------|
B|----3--4-------3--------------------------|
G|-5--5--5----5--5--------------------------|
D|-5----------5-----------------------------|
A|-3----------------------------------------|
E|------------4-----------------------------|

   Bb2       Eb2          Bb2
Você deve estar com medo de contar
          Cm              Ab
Que seu amor, por mim acabou
           Fm  G  Ab      Bb2
Sempre fingiu,   nada sentiu
             Eb2
Na hora de amar
          Bb2
Tem medo de contar
         (Frase 3)        Ab
Que seu amor, por mim acabou
           Fm   Ab      Bb2
Sempre fingiu, nada sentiu
             Cm (Arranjo final)
Na hora de amar
Composição de César Augusto / Mats Arne Persson / Per Hakan Gessle
Colaboração e revisão:
  • Thiago Almeida
159.049 exibições
  • Simplificar cifra
    • ½ Tom
    • Am
    • Bbm
    • Bm
    • Cm
    • C#m
    • Dm
    • Ebm
    • Em
    • Fm
    • F#m
    • Gm
    • G#m
  • Adicionar à lista

    0 comentários

    Ver todos os comentários

    Conseguiu tocar?

    4 Tocaram 1 Ainda não

    Grave um vídeo tocando Na Hora de Amar e nos envie!

    00:00 / 00:00
    Outros vídeos desta música
    Repetir Qualidade Automático
    Outros vídeos desta música
    00:00 / 00:00
    Automático
    Capítulos
    • Tocando a Música
    • Apresentação / Equipamentos
    • Acordes Introdução
    • Tocando Introdução
    • Ensinando Introdução
    • Acordes Primeira e Segunda Parte
    • Tocando Primeira e Segunda Parte
    • Ritmos Primeira Parte
    • Ensinando Segunda Parte
    • Acordes Refrão
    • Tocando Refrão
    • Ritmo Refrão
    • Tocando Terceira Parte
    • Ritmo Terceira Parte
    • Tocando Segundo Refrão
    • Ensinando Segundo Refrão
    • Tocando Quarta Parte
    • Acordes Refrão Final
    • Tocando Refrão Final
    • Ensinando Refrão Final
    • Ensinando Solos
    • Encerramento

    Cifra Club Pro

    Aproveite o Cifra Club com benefícios exclusivos e sem anúncios
    Cifra Club Pro
    Aproveite o Cifra Club com benefícios exclusivos e sem anúncios
    OK