Cifra Club

Sweet Child O' Mine / Nova York (Pot-Pourri)

Gusttavo Lima

Cifra: Principal
exibições 23.478
Tom: G
E|-------------15----14------|
B|----15---------------------|
G|-------14-12----14----14---|
D|-12------------------------|
A|---------------------------|
E|---------------------------|

E|-------------15----14------|
B|----15---------------------|
G|-------14-12----14----14---|
D|-14------------------------|
A|---------------------------|
E|---------------------------|

E|-------------15----14------|
B|----15---------------------|
G|-12----14-12----14----14---|
D|---------------------------|
A|---------------------------|
E|---------------------------|

E|-12----------12----14------|
B|-------15------------------|
G|----14----14----14----14---|
D|---------------------------|
A|---------------------------|
E|---------------------------|

E|-15---14----12-------------|
B|------------------15-------|
G|---14---14----14--14-------|
D|---------------------------|
A|---------------------------|
E|---------------------------|

Intro 2x: G  D  Am  C  Am  C

E|--------------------------------------------------|
B|-8-8-8-8-8-8-8-7-5-3-1-0------0-1--------0-1-0----|
G|-------------------------2-2-2-----2-2-2-------2-0| (2x)
D|--------------------------------------------------|
A|--------------------------------------------------|
E|--------------------------------------------------|

Am           C           G
Essa é a história de um novo herói.
Am          C         G
Cabelos compridos a rolar no vento.
Am       C          G
Pela estrada no seu caminhão.
Am          C                G
Cravado no peito a sombra de um dragão.

C                     G
Tinha um sonho ir pra Nova York
G
levar a namorada.
C                   G
Fazer seu caminhão voar nas nuvens.
C                 G
Mas enquanto isso na estrada.
        Am           C
Saudade vai, vai, vai.
        Am         C       G
Saudade vem, vem, vem te buscar.

E|--------------------------------------------------|         
B|-8-8-8-8-8-8-8-7-5-3-1-0------0-1--------0-1-0----|          
G|-------------------------2-2-2-----2-2-2-------2-0| 
D|--------------------------------------------------|
A|--------------------------------------------------|
E|--------------------------------------------------|
Acordes para:
    Colaboração e revisão:
    • Erick

    0 comentários

      mostrar mais comentários

      Conseguiu tocar?

      9tocaram0ainda não

      Grave um vídeo tocando Sweet Child O' Mine / Nova York (Pot-Pourri) e mande pra gente!

      00:00 / 00:00
      outros vídeos desta música
      repetirqualidadeautomática
      Outro vídeos desta música
        00:00 / 00:00
        automática
        OK