Cifra Club

To Solto Na Night

Gusttavo Lima

Cifra: Principal
exibições 39.327
Tom: D
Intro:  Bm G D A F# (2x)

Solo para 2° violão: 2x

E|--------------------------------|
B|--------------------------------|
G|------------11~----9-11-9-------|
D|--9-9-9-9-9---------------12-11-|
A|--------------------------------|
E|--------------------------------|

E|-------------------------------------------------|
B|-------------------------------------------------|
G|------------12---12-12-11-9------11-11-9---------|
D|9-9-9-9-9--------------------12------------12-11-|
A|-------------------------------------------------|
E|-------------------------------------------------|

Bm
Tô solto na night, tô
                 G
Tô pronto toda hora, eu tô ligado a 220
D
Meu celular não para, mensagem tá chegando
A
Até de madrugada elas "tão" me ligando
Bm                            G
Tô puro veneno, tô chegando muendo

O trem nunca teve tão bom pra mim
D
Entrei pra academia o corpinho ta sarado
A
Todas tão me querendo to ficando condenado
Em
Choveu no meu deserto
G
To tranquilo, to sereno
D
Me deu moral já era
F#
Tô mexendo, tô mexendo

Então...

( Refrão )

Bm
Bora! Bora!
G                    D                       A
Eu nunca fico solto, tô pegando tô moendo e ó ó,
Bm           G
Bora! Bora! Se tá bom fica melhor,
D                                  A
Beijo eu dou é na mamãe eu quero é ó ó... (2x)

( Bm G D A F# )

Bm
Tô solto na night, tô
                 G
Tô pronto toda hora, eu tô ligado a 220
D
Meu celular não para, mensagem tá chegando
A
Até de madrugada elas "tão" me ligando
Bm                            G
Tô puro veneno, tô chegando muendo

O trem nunca teve tão bom pra mim
D
Entrei pra academia o corpinho ta sarado
A
Todas tão me querendo to ficando condenado
Em
Choveu no meu deserto
G
To tranquilo, to sereno
D
Me deu moral já era
F#
Tô mexendo, tô mexendo

Então...

( Refrão )

Bm
Bora! Bora!
G                    D                       A
Eu nunca fico solto, tô pegando tô moendo e ó ó,
Bm           G
Bora! Bora! Se tá bom fica melhor,
D                                  A
Beijo eu dou é na mamãe eu quero é ó ó... (5x)

( Bm G D F# )  (Bm)
Acordes para:
    Colaboração e revisão:
    • Vinicius Henrique
    • Júnior Lima
    • Jeaan

    0 comentários

      mostrar mais comentários

      Conseguiu tocar?

      8tocaram0ainda não

      Grave um vídeo tocando To Solto Na Night e mande pra gente!

      00:00 / 00:00
      outros vídeos desta música
      repetirqualidadeautomática
      Outro vídeos desta música
        00:00 / 00:00
        automática
        OK