Cifra Club

Vamos Fazer Bebê Agora

Gusttavo Lima

Cifra: Principal
exibições 128.398
Tom: C
Intro: Am  G  F  E  F  Am

E|--12--12--13--12--13--12--10--10--10------10----|
B|--------------------------------------12--------|
G|------------------------------------------------|
D|------------------------------------------------|
A|------------------------------------------------|
E|------------------------------------------------|

E|--10--10--13--12--13--12--12--12--12------12----|
B|--------------------------------------13--------|
G|------------------------------------------------|
D|------------------------------------------------|
A|------------------------------------------------|
E|------------------------------------------------|

E|--12--12--13--12--13--12--10--10--10------10----|
B|--------------------------------------12--------|
G|------------------------------------------------|
D|------------------------------------------------|
A|------------------------------------------------|
E|------------------------------------------------|

E|--10--10--10--12p10----------------------------12--|
B|---------------------13--12--10----10--13--13---|
G|------------------------------------------------|
D|------------------------------------------------|
A|------------------------------------------------|
E|------------------------------------------------|

Am                                                 G
 E quando eu toco esse swing é pra ninguém ficar parado.
                                    Am
 Quero tiver aprender esse novo swinguado.

Am                                       G
 Misturamos o sertanejo que virou um batidão.
                Em                      Am
 Com o Gusttavo Lima balançando a multidão.

Am                                       G
 Misturamos o sertanejo que virou um batidão.
             Em                      Am
 Com o Gusttavo Lima balançando a multidão.

                                G
 Quer beber?  Vamos fazer bebê agora!
            Em                  Am
 Quer beber?  Vamos fazer bebê agora!
                                G
 Quer beber?  Vamos fazer bebê agora!
                     Em                     Am
 Nos braços de uma morena pra fazer não tem hora.
Acordes para:

    0 comentários

      mostrar mais comentários

      Conseguiu tocar?

      17tocaram0ainda não

      Grave um vídeo tocando Vamos Fazer Bebê Agora e mande pra gente!

      00:00 / 00:00
      outros vídeos desta música
      repetirqualidadeautomática
      Outro vídeos desta música
        00:00 / 00:00
        automática
        OK