Leave Me Alone Intro

H-Blockx

tom: G


|--------||----------------------------------------------------------|
|--------||----------------------------------------------------------|
|---4----||----4---4---4---4---4---4---4---4-------------------------|
|---4----||----4---4---4---4---4---4---4---4-------------------------|
|---2----||----2---2---2---2---2---2---2---2-------------------------|
|--------||----------------------------------------------------------|

|------------------------------------|---------------------------|
|------------------------------------|---------------------------|
|----4---4---4---4---4---4---4---4---|---------------------------|
|----4---4---4---4---4---4---4---4---|--5--5--5--5--5--5--5--5---|
|----2---2---2---2---2---2---2---2---|--5--5--5--5--5--5--5--5---|
|------------------------------------|--3--3--3--3--3--3--3--3---|
                              *2
|-----------------------------||
|-----------------------------||
|-----------------------------||
|--2--2--2--2--2--2--2--2-----||
|--2--2--2--2--2--2--2--2-----||
|--0--0--0--0--0--0--0--0-----||
Página 1 / 1

Letras e título
Acordes e artista

resetar configurações
OK