Cifra Club

Legacy of Kings

HammerFall

Tab de baixo: Principal
INTRO:
G|------------------------------------------------------|
D|------------------------------------------------------|
A|-7/3-----3-----3-----3-----3-----3-----3-----3-----3--|
E|------------------------------------------------------|

JUNTO COM A BATERIA:
G|----------|
D|----------|
A|-3333333--|
E|----------|

REFRÃO TOCA-SE EM 2 TEMPOS
G|-------------------------------------------------------------------------|
D|-------------------------------------------------------------------------|
A|-3-3-3-3-3-3-3-3-3-3-3-3-3-3-3-3-3-3-3-3-3-3-3-3-3-3-3-3-3-3-3-3-3-3-3-3-|
E|-------------------------------------------------------------------------|
     
FINAL DO REFRÃO
G|--------------|
D|--------------|
A|---3-1-1-0----|
E|--------------|

VERSO:  TOCA-SE 4X COM 1 TEMPO
G|-----------------------------------------------------------------------------|
D|-----------------------------------------------------------------------------|
A|-5-5-5-5-5-5-5-5-5-5-5-5-5-5-5-5-5-5-5-5-5-5-1-3-5-5-5-5-5-5-5-5-5-5-5-5-5-5-|
E|-----------------------------------------------------------------------------|

G|-----------------------------|
D|-----------------------------|
A|---5-5-5-5-5-5-5-5-5--1--3---|
E|-----------------------------|

PONTE:
G|-----------------------------------------------------------------------------|
D|---------------5--------------------------------------------------7----------|
A|-7-7-7-7-7-7-3---5-5-5-5-5-7-7-7-5-5-5-3-5-5-5-5-5--9-9-9-9-9-9-5---7-7-7-7-7|
E|-----------------------------------------------------------------------------|

G|------------------------|
D|------------------------|
A|----9--9-9-7-7-7-5-7----|
E|------------------------|

REFRÃO: TOCA-SE 1 TEMPO 
VERSO:  TOCA-SE 1 TEMPO

SOLO:
G|----------------------------------------------------------------------------|
D|----------------------------------------------------------------------------|
A|-------------------------------------------------------5-7-------------5-4--|
E|-5-5-5-5-7-7-7-7-7-7-7-7-3-3-3-3-5-5-5-5-7-7-7-7-7-7-7-----5-5-5-5-5-5-----7|

G|------------------------------------------------------------------|
D|------------------------------------------------------------------|
A|------------------------------------------------------------------|
E|-7-7-7-7-7-7-7-3-3-3-3-5-5-5-5-3-3-3-3-3-3-3-3-5-5-5-5-5-5-5-5----|

G|----------------------------------------------------------------------------|
D|-----------------------------------------------5-7--------------------------|
A|-5-5-5-5-5-5-5-1-1-1-1-3-3-3-3-5-5-5-5-5-5-5-5-----3-3-3-3-3-3-3-8-7-5-5-5-5|
E|----------------------------------------------------------------------------|

G|--------------------------------------------------------------|
D|--------------------------------------------------------------|
A|---5-5-5-5-1-1-1-1-3-3-3-3-1-1-1-1-1-1-1-1-3-3-3-3-3-3-3-3----|
E|--------------------------------------------------------------|

DEPOIS DO SOLO:
G|---------------------------------------------------------------------------|
D|---------------------------------------------------------------------------|
A|------------------------5--7--------------------------5-5-5-5-5-5-5-5-7-7-7|
E|-7--3--5--7--5-7--3--5-------7--3--5--7--5---7--3--5-----------------------|

G|--------------------|
D|-------------5-5----|
A|---7-7-7-7-7--------|
E|--------------------|

VERSO: TOCA EM 2 TEMPOS
PONTE:
INTRO:

REFRÃO:
G|----------------------------------------------------------------------------|
D|-------------------------------------------------------5-----5-----5-5-4----|
A|-3-3-3-3-3-3-3-3-3-3-3-3-3-3-3-3-3-3-3-3-3-3-3-3-3-5-5---5-5---5-5-------7-7|
E|----------------------------------------------------------------------------|
00:00 / 00:00
Outros vídeos desta música
Repetir
Outros vídeos desta música
Composição de Jesper Strömblad / Joacim Cans / Oscar Dronjak
Colaboração e revisão:
  • Taino Vieira
143 exibições

0 comentários

Ver todos os comentários

Conseguiu tocar?

0 Tocaram 0 Ainda não

Grave um vídeo tocando Legacy of Kings e nos envie!

00:00 / 00:00

Cifra Club Pro

Aproveite o Cifra Club com benefícios exclusivos e sem anúncios
Cifra Club Pro
Aproveite o Cifra Club com benefícios exclusivos e sem anúncios
OK