Cifra Club

Lifes What You Make It

Hannah Montana

Cifra: Principal (violão e guitarra)
tom: F
I dont know the effect sorry.
First tab. please rate

E----------------------------|
B----------------------------|
G----------------------------|
D----10-12-14-12-10-12-------|  
A--12------------------12-10-|

E----------------------------|
B----------------------------|
G----------------------------|
D----10-12-14-12-10-12-------|  
A--12------------------12ring|
E----------------------------|


00:00 / 00:00
Outros vídeos desta música
Repetir
Outros vídeos desta música
Composição de Matthew Gerrard / Robbie Nevil
5.724 exibições
    • ½ Tom
    • A
    • Bb
    • B
    • C
    • Db
    • D
    • Eb
    • E
    • F
    • F#
    • G
    • Ab
  • Adicionar à lista

    0 comentários

    Ver todos os comentários

    Entre para oCifra Club PRO

    Tenha acesso a benefícios exclusivos no App e no Site

    • Chega de anúncios

    • Prioridade de compra em lançamentos

    • Mais recursos no app do Afinador

    • Atendimento Prioritário

    • Descontos nos produtos Cifra Club

    • Ajude a produzir mais conteúdo

    00:00 / 00:00

    Cifra Club Pro

    Aproveite o Cifra Club com benefícios exclusivos e sem anúncios
    Cifra Club Pro
    Aproveite o Cifra Club com benefícios exclusivos e sem anúncios
    OK