Cifra Club

304 - A Face Adorada de Jesus

Harpa Cristã

Cifra: Versão 5 (violão e guitarra)
Tom: A
E|-------------4-----4-----8---6-4---------------|
B|-4---6-4--6------6-------4--------6--4---------|
G|-5---4-5--4--5---4-5---------6-5--6--5---------|
D|-6---6-6--6--6---6-6-----6---5-6--6--6---------|
A|-----------------------------6-8--4------------|
E|-4---4-4--4--4---4-4-----------------4---------|

E|-------------4-----4-----8---8-6--8--6---------|
B|-4---6-4--6------6-------4---4-------4---------|
G|-5---4-5--4--5---4-5-----------7--7--0---------|
D|-6---6-6--6--6---6-6-----6---6----6------------|
A|-------------------------------8-----6---------|
E|-4---4-4--4--4---4-4-----4---4-6--6------------|

E|-8---8-8--6--4---6-8-----8---6-4---------------|
B|-4---4-4--4--4---4-4-----4--------6--4---------|
G|----------0------0-----------6-5--6--5---------|
D|-6---6-6-----6-----6-----6---5-6--6--6---------|
A|----------6------6-----------6-8--4------------|
E|-------------8-----------------------4---------|

E|-------------8---8-8------8---8-6---6-4--------|
B|-9---9-9--------------------9-6-8-6------------|
G|-5---5-7-----8---8-8------8-----6---8-5--------|
D|-6---6-6-----6---6-6------6---6-----5-6--------|
A|-8---8-7-----6---6--------6---6-6---6----------|
E|-------------------10-----------------4--------|

E|-8---8-8--8--8----4------4---4-4---------------|
B|-4-----6-----4-----------6---6-6--6--4---------|
G|------------------5----------6-6--6--5---------|
D|-6---6-6--6--6----6------6--------6--6---------|
A|-------------------------4---4-4--8------------|
E|-4---4-4--4--4----4----------------------------|

E|-8---8-8--8--8----------6---8-6--8--6----------|
B|-4-----6-----4----9-----------------4----------|
G|------------------5-----7---7-7--7--0----0---0-|
D|-6---6-6--6--6----6-----6---6----6-----6-8-6---|
A|------------------8-----------8-----6--8---8-6-|
E|-4---4-4--4--4----------6---6-6--6-------------|

E|-8---8-8--8--8----4------4---4-4---------------|
B|-4-----6-----4-----------6---6-6--6--4---------|
G|------------------5----------6-6--6--5---------|
D|-6---6-6--6--6----6------6--------6--6---------|
A|-------------------------4---4-4--8------------|
E|-4---4-4--4--4----4----------------------------|

E|-------------8---8-8------8---8-6---6-4--------|
B|-9---9-9--------------------9-6-8-6-4----------|
G|-5---5-7-----8---8-8------8-----6---0-5--------|
D|-6---6-6-----6---6-6------6---6-------6--------|
A|-8---8-7-----6---6--------6---6-6---6----------|
E|-------------------10-----------------4--------|

E|-----------------------------------------------|
B|-----------------------------------------------|
G|-----------------------------------------------|
D|-----------------------------------------------|
A|-----------------------------------------------|
E|-----------------------------------------------|
exibições 4.469
Acordes para:
    Composição: Romário Bass Colaboração e revisão:
    • Helon Oliveira

    0 comentários

    mostrar mais comentários

    Conseguiu tocar?

    0 tocaram 0 ainda não

    Grave um vídeo tocando 304 - A Face Adorada de Jesus e mande pra gente!

    00:00 / 00:00
    outros vídeos desta música
    repetir qualidade Automático
    Outros vídeos desta música
    00:00 / 00:00
    Automático
    OK