545 - Porque Ele Vive

Harpa Cristã

tom: A
[Intro] A9  E  Bm  D  A9  E  Bm
        A9  E  Bm  D  G  D/F#  A9

[Solo Intro]

E|-12b14r12-12~--12------9-----------------------------|
B|------------------9h10------9-12------10p9-----------|
G|-------------------------11------9-11------9---9/10~-|
D|---------------------------------------------9-------|
A|-----------------------------------------------------|
E|-----------------------------------------------------|

[Refrão]

            A9  A9/C#
Porque Ele vive
              D
Posso crer no amanhã
            A9
Porque Ele vive
           E
Temor não há

            A9
Mas eu bem sei, eu sei
             D
Que a minha vida
          A9            E
Está nas mãos do meu Jesus
            A9
Que vivo está

[Primeira Parte]

         A9             D
Deus enviou seu Filho amado
         A9           Bm  E
Para morrer em meu lugar
            A9             D
Na cruz sofreu por meus pecados
Bm     A9/C#  F#m            E/G#
   Mas o   sepulcro vazio está
            D
Porque ele vive

[Refrão]

            A9
Porque Ele vive
              D
Posso crer no amanhã
            A9
Porque Ele vive
           E
Temor não há

            A9
Mas eu bem sei, eu sei
             D
Que a minha vida
Bm    A9/C#  F#m           E/G#   
   Está nas mãos do meu Jesus
            G  F#5  G#5  E
Que vivo está

[Segunda Parte]

            A9            D
E quando enfim, chegar a hora
          A9            Bm  E
Em que a morte enfrentarei
             A9           D
Sem medo, então, terei vitória
Bm    A9/C#      F#m         E/G#
   Verei na Glória, o meu Jesus
            D
Que vivo está

[Refrão]

            A9
Porque Ele vive
              D
Posso crer no amanhã
            A9
Porque Ele vive
           E
Temor não há

            A9
Mas eu bem sei, eu sei
             D
Que a minha vida
Bm    A/C#   F#m           E/G#   
   Está nas mãos do meu Jesus
            
Que vivo está

[Solo] G  A9  G  G5  F#5  A5  E

[Solo Principal]

Parte 1 de 4
E|--------10---------------------10--------------------|
B|-10-8-7----7~-8-7-x-7~--10-8-7----7~-8-7-x-7~--------|
G|-----------------------------------------------------|
D|-----------------------------------------------------|
A|-----------------------------------------------------|
E|-----------------------------------------------------|

Parte 2 de 4
E|---------12------------------------------------------|
B|-12-10-9----9~-10-9-x-9~-----------------------------|
G|-----------------------------------------------------|
D|-----------------------------------------------------|
A|-----------------------------------------------------|
E|-----------------------------------------------------|

Parte 3 de 4
E|-----------------------------------------------------|
B|-12-0-10-12-0-0--14-0-12-14-0-0--15-0-14-15----------|
G|-----------------------------------------------------|
D|-----------------------------------------------------|
A|-----------------------------------------------------|
E|-----------------------------------------------------|

Parte 4 de 4
E|----------17-----------------------------------------|
B|-17-15-14----14~-15-14-x-14~--15-17b19~--7/8\7-7/10~-|
G|-----------------------------------------------------|
D|-----------------------------------------------------|
A|-----------------------------------------------------|
E|-----------------------------------------------------|

[Refrão]

    E       A9
Porque Ele vive
              D
Posso crer no amanhã
            A9
Porque Ele vive
           E
Temor não há

            A9
Mas eu bem sei, eu sei
             D
Que a minha vida
Bm    A/C#   F#m           E/G#   
   Está nas mãos do meu Jesus
            D  A9/C#  A9
Que vivo está
Página 1 / 1

Letras e título
Acordes e artista

resetar configurações
OK