Cifra Club

Aprenda

545 - Porque Ele Vive

Harpa Cristã

Tab de baixo: Principal
"Deus enviou...' obs: começa no enviou ai bate a primeira nota                        
G|-------------------------------------------------|
D|-------------------------------------------------|
A|------------2-3-3-2-0---0---------------3-5--5---|
E|--3-3-3-0-3----------------3-3-2-0-0-1---------5-|
 
 "...vrou os meus pecados.."  obs: a primeira nota bate nessa silaba
G|-------------------------------------------------|
D|-------------------------------------------------|
A|------------2-3-3-6-6--0-----3-2-0--5--2-----5-5-|
E|--3-3-3-0-1--------------3-3-------------3-------|

   "porque ele vive"  obs: como antes a primeira nota bate no vive  
G|-----------------------------------------------------|
D|-----------------------------------------------------|
A|------------2-3-3-2-0---0---------------3-5--5--5----|
E|--3-3-3-0-3----------------3-3-2-0-0-1-------------5-|

  "...sei eu sei..."
G|----------------------------------------------------------|
D|----------------------------------------------------------|
A|------2----------2-3---3-2-0--0--------2--1--0-0--5--2----|
E|--3-------3--3-4-------------------3-3------------------3-|
Colaboração e revisão:
  • Fabricio Zaquini
4.203 exibições

0 comentários

Ver todos os comentários
00:00 / 00:00
outros vídeos desta música
repetir qualidade Automático
Outros vídeos desta música
00:00 / 00:00
Automático

Cifra Club Pro

Aproveite o Cifra Club com benefícios exclusivos e sem anúncios
Cifra Club Pro
Aproveite o Cifra Club com benefícios exclusivos e sem anúncios
OK