Cifra Club

À Beira da Estrada

Harpa Cristã

Cifra: Principal
exibições 10.791
Tom: A
E|---------------------8-8---|-10-10-10-8--5---5---3-3--|
B|-10-10-10-10-----13--8-10--|-------------6-6-6---5-5--|
G|-10-10-10-10--10-10--------|-10-10-10-10-5---5---5-5--|
D|-10-10-10-10---------8-10--|-8--8--8--7----7----------|
A|--------------12-12--8-8---|-8--8--8--8--8-8-----3-3--|
E|-13-13-13-13--13-13--------|-----------------8--------|

E|----------------------8--8-8---|-10-10-10----------------3-1--8-|
B|-10-10-10-10-------10----8-10--|----------13-10-0--10-10-1-1--6-|
G|-10-10-10-10-12-10-10-10-------|-10-10-10-10-10-10-10-10-3-2----|
D|-10-10-10-10-10-10-10----8-10--|----------10-10-0--10-10---3--7-|
A|-------------13-12----12-8-8---|-13-13-13-12-------------3----8-|
E|-13-13-13-13-13-13-13-13-------|-------------13----8--8---------|

E|-10-10-10-10-6--10-8---8-8---8-|-8-0-0-0-5-6---------------|
B|-6--6--6--6--6--6------8-10--6-|-5-8-8-8-6-8-10--13-13--13-|
G|-------------------10----------|-0-5-5-5-5-5-10--10-10--10-|
D|-8--8--8--8--8--8--7---8-10--7-|-------------10------------|
A|-------------------8---8-8---8-|-----------------12-12--12-|
E|-6--6--6--6--10-6--------------|-8-8-8-8-8-8-13--13-13--13-|

E|-10-10-10-10-12-13-13--0------10-|-8-5----5--3--1--------|
B|-----------------------13-13--6--|-6-6-0--6--1--1--------|
G|-10-10-10-10-10-10-10--0--10-----|---5-10-5--3--2--------|
D|-------------10-12-10---------8--|-7---0--------3--------|
A|-13-13-13-13-13-13-12--13-12-----|-----------3-----------|
E|--------------------------13--6--|-8-8----8--------------|
Acordes para:
    Colaboração e revisão:
    • Helon Oliveira

    0 comentários

      mostrar mais comentários

      Conseguiu tocar?

      0tocaram0ainda não

      Grave um vídeo tocando À Beira da Estrada e mande pra gente!

      00:00 / 00:00
      outros vídeos desta música
      repetirqualidadeautomática
      Outro vídeos desta música
        00:00 / 00:00
        automática
        OK