Cifra Club

Black Friday Cifra Club

A Cristo Coroai

Harpa Cristã

Cifra: Principal (violão e guitarra)
tom: G
E|---------------|-8---7-------7-|-0-----------1-|-0---1---3------|
B|-------------8-|-----0---10--7-|-8-----------0-|-1---0---1---10-|
G|-------------0-|-------------8-|-----7---0---0-|-0-----------10-|
D|---------------|-10------7---9-|-9---9---10--0-|-----0---2---10-|
A|---------------|---------------|-7---8---7-----|-3--------------|
E|---------------|-------------7-|---------------|-------------13-|

E|----------------|-------------0-|-5---5---7---8-|-10---12--5---5-|
B|----------------|-----7---8---8-|-5---7---8---8-|-8--7-----3-----|
G|-7-----------7--|-9---7---7-----|-5---5---0---0-|-0----9---0---5-|
D|-10--7---9---9--|-10--7---9---9-|-----0---9-----|----------0---4-|
A|-10----------10-|-10----------7-|-------------7-|------10------5-|
E|----------------|-8---8---7-----|-8-------------|-7----8---------|

E|-3-----------3-|-12----10--0------|-7-----------5-7-|-8---5---3-------|
B|-------------6-|-------0---13--15-|-8-------8---8---|-8---6-5-3---6-5-|
G|-4-----------4-|-9--11-12--14--10-|-7---7-------7---|-5---5---4---6---|
D|-5-----------5-|-10----12------10-|-5---------------|---------5---7---|
A|---------------|-----------12--12-|-------------8---|-7---8-----------|
E|-3-------------|------------------|-----------------|-----------------|

E|---------------|-------------8--|-7---10--8---12-|-12--10--8---7--|
B|-6-----------8-|-5---10--8---7--|-8---8---8---9--|-10--10--8------|
G|-7-----------7-|-5---7---9---7--|-7--------------|---------9---10-|
D|-7-----------5-|-5-7-9---10-----|-----9---10--9--|-10--12------12-|
A|-5-------------|-----8---7------|-10--8----------|-----8---10--10-|
E|-------------7-|-8-----------10-|---------12--10-|-8--------------|

E|-8------------|
B|--------------|
G|-9------------|
D|-10-----------|
A|--------------|
E|-8------------|

00:00 / 00:00
Outros vídeos desta música
Repetir
Outros vídeos desta música
Composição de Paulo Leivas Macalão
Colaboração e revisão:
  • Helon Oliveira
15.461 exibições
    • ½ Tom
    • A
    • Bb
    • B
    • C
    • Db
    • D
    • Eb
    • E
    • F
    • F#
    • G
    • Ab
  • Adicionar à lista

    0 comentários

    Ver todos os comentários

    Entre para oCifra Club PRO

    Tenha acesso a benefícios exclusivos no App e no Site

    • Chega de anúncios

    • Prioridade de compra em lançamentos

    • Mais recursos no app do Afinador

    • Atendimento Prioritário

    • Descontos nos produtos Cifra Club

    • Ajude a produzir mais conteúdo

    00:00 / 00:00

    Cifra Club Pro

    Aproveite o Cifra Club com benefícios exclusivos e sem anúncios
    Cifra Club Pro
    Aproveite o Cifra Club com benefícios exclusivos e sem anúncios
    OK