Cifra Club

Black Friday Cifra Club

A Preciosa Fonte

Harpa Cristã

Cifra: Principal (violão e guitarra)
tom: D
E|-5----7--5-----7-|-5------------|-10---9--7--5-5---|-0------------|
B|-7----8--7-7---8-|-7-------7----|-7----10-8--7-7-7-|--------------|
G|-7----7--7-7-7-7-|-7-------7----|---------7--7---7-|-6------------|
D|-----------7-0-0-|---------7----|-7----7-------7-7-|-7------------|
A|-5----5--5-5-9---|-5------------|------------5-5-9-|--------------|
E|-----------------|---------10---|-10---10-10-------|--------------|

E|-5----7--5-----7-|-5------------|---------7-5-----|--------------|
B|-7----8--7-7---8-|-7-------7----|-5----8------8-5-|--------------|
G|------7--7-7-7-7-|-7-------7----|-6----6--6-6-6-6-|-7------------|
D|-7---------7-0-0-|---------7----|-7----7--------7-|-0------------|
A|-5----5--5-5-9---|-5-------5----|---------7-7-7---|-9------------|
E|-----------------|--------------|-5----5--5-5-5-5-|--------------|

E|-10---12-10-----|----9--10-----------|-0--------7------|--------------|
B|-------------10-|-12-10-12-12-10-----|---7-8-10-----10-|-10-----------|
G|-11---12-11--11-|-12-0--0--12-11--11-|-6-7-9-11-12--12-|-11------11---|
D|-------------12-|-12-12-12-12-12--12-|-7-7-7-7--7---11-|-12------12---|
A|-12---12-12-----|-10-------10-----12-|-0-0-0-0--0---0--|---------12---|
E|-10---10-10--10-|-------------10--10-|-----------------|-10-----------|

E|-10---12-10-----|----9--10-----------|-0--------7---9-|-10-----------|
B|-------------10-|-12-10-12-12-10-----|---7-8-10-8---8-|-7------------|
G|-11---12-11--11-|-12-0--0--12-11--11-|-6-7-9-11-------|--------------|
D|-------------12-|-12-12-12-12-12--12-|-7-7-7-7--7---7-|-7------------|
A|-12---12-12-----|-10-------10-----12-|-0-0-0-0--0---0-|--------------|
E|-10---10-10--10-|-------------10--10-|----------------|-10-----------|

00:00 / 00:00
Outros vídeos desta música
Repetir
Outros vídeos desta música
Compositor não encontrado.
Colaboração e revisão:
  • Helon Oliveira
10.114 exibições
    • ½ Tom
    • A
    • Bb
    • B
    • C
    • Db
    • D
    • Eb
    • E
    • F
    • F#
    • G
    • Ab
  • Adicionar à lista

    0 comentários

    Ver todos os comentários

    Entre para oCifra Club PRO

    Tenha acesso a benefícios exclusivos no App e no Site

    • Chega de anúncios

    • Prioridade de compra em lançamentos

    • Mais recursos no app do Afinador

    • Atendimento Prioritário

    • Descontos nos produtos Cifra Club

    • Ajude a produzir mais conteúdo

    00:00 / 00:00

    Cifra Club Pro

    Aproveite o Cifra Club com benefícios exclusivos e sem anúncios
    Cifra Club Pro
    Aproveite o Cifra Club com benefícios exclusivos e sem anúncios
    OK