Cifra Club

A Graça de Nosso Senhor

Harpa Cristã

Cifra: Principal
exibições 2.935
Tom: A
E|-------------6-|-6---3-----------|-------------3-|-----6---6---5-|
B|-------------4-|-4---4-4-6---4-3-|-4-----------4-|-6---6---6---4-|
G|-------------0-|-0-----3-5---3-3-|-3-----------3-|-3---7---5---5-|
D|---------------|-------5-6---5-3-|-5-------------|---------3---3-|
A|-------------6-|-6---6-6---------|-6-----------6-|-5-------------|
E|---------------|---------4---6-6-|---------------|-----6---------|

E|-6--------6--8--10-|-11-------------------|-8------------|---------3---1-|
B|-3--------4-----6--|-8-------8-8-9--9--11-|---------11---|-11------4---3-|
G|-3--------3--8-----|---------8-8-8--8--8--|-8-------8----|-10------1---1-|
D|----------5-----6--|-8-------8-8-------8--|---------8----|-8-------------|
A|-------------11-8--|-------------11-11----|-11------10---|---------1---1-|
E|-6-----------------|-11------9-9-8--8--11-|--------------|-10------------|

E|-------------1-|--------------|--------------|
B|-4-----------1-|-4-------3----|--------------|
G|-0-----------1-|-3-------3----|-0------------|
D|---------------|-5-------3----|-13-----------|
A|-3-------------|--------------|-13-----------|
E|-------------4-|-6-------6----|-11-----------|
Acordes para:
    Colaboração e revisão:
    • Helon Oliveira

    0 comentários

      mostrar mais comentários

      Conseguiu tocar?

      0tocaram0ainda não

      Grave um vídeo tocando A Graça de Nosso Senhor e mande pra gente!

      00:00 / 00:00
      outros vídeos desta música
      repetirqualidadeautomática
      Outro vídeos desta música
        00:00 / 00:00
        automática
        OK