Cifra Club

Black Friday Cifra Club

A Palavra da Vida

Harpa Cristã

Cifra: Principal (violão e guitarra)
tom: G
E|---------------3-|-3-2-3-0--7------|-7-------0---8-|-7---5---3----|
B|-3---5---3-----3-|-3---3-10-----10-|-----8-------5-|-3------------|
G|-4---5---------4-|-4-2-0----7---7--|-7---0---0---0-|-0---5---4----|
D|-5---5---5-------|----------0---0--|-----10--------|-----4---5----|
A|-----3---2---0---|---0-2----10--9--|-10--7-------0-|-5---5--------|
E|-3---------------|-3-----8---------|---------8-----|---------3----|

E|-----0---------3-|-3-2-3-0--7------|-7---0---10--0-----|---------3----|
B|-3-------3-----3-|-3---3-10-----10-|-----13------13-10-|-8---7---3----|
G|-4---5---0-----4-|-4-2-0----7---7--|-7---0---0---0-----|-7---7---4----|
D|-5---5-----------|----------0---0--|---------12-----10-|-9---7--------|
A|-----3---2---0---|---0-2----10--9--|-10----------------|--------------|
E|-3---------------|-3-----8---------|-----12--7---8-----|-10--10--3----|

E|--------------------|---------10----7-|-10---10-8-7-------|-10-----------|
B|-10---12-13-------0-|-12---13-12-10-8-|-8----8--7-8--10-8-|-7------------|
G|-11---12-14----14---|-12---14-0-----7-|-7----7--7-7--7--7-|-7------------|
D|-10---0--0-----12---|-12---10-9-----9-|-9----9--7---------|--------------|
A|------14-12-10-9----|-10---------12---|-----------10-9--7-|--------------|
E|-10---------12------|------10---------|-------------------|-10-----------|

E|-10---8--7--10-8-5-|-3---2---3----|-3-------3----|--------------|
B|-8----7--8-----5---|-3---3---3----|-5-------3----|--------------|
G|-7----7--0-------5-|-4---2-5-4----|-5-------4----|--------------|
D|-9----7--12-9--5---|-0---0---5----|--------------|--------------|
A|-------------------|--------------|-3------------|--------------|
E|---------------8---|--------------|---------3----|--------------|

00:00 / 00:00
Outros vídeos desta música
Repetir
Outros vídeos desta música
Composição de Sarah Poulton Kalley
Colaboração e revisão:
  • Helon Oliveira
3.092 exibições
    • ½ Tom
    • A
    • Bb
    • B
    • C
    • Db
    • D
    • Eb
    • E
    • F
    • F#
    • G
    • Ab
  • Adicionar à lista

    0 comentários

    Ver todos os comentários

    Entre para oCifra Club PRO

    Tenha acesso a benefícios exclusivos no App e no Site

    • Chega de anúncios

    • Prioridade de compra em lançamentos

    • Mais recursos no app do Afinador

    • Atendimento Prioritário

    • Descontos nos produtos Cifra Club

    • Ajude a produzir mais conteúdo

    00:00 / 00:00

    Cifra Club Pro

    Aproveite o Cifra Club com benefícios exclusivos e sem anúncios
    Cifra Club Pro
    Aproveite o Cifra Club com benefícios exclusivos e sem anúncios
    OK