Cifra Club

Black Friday Cifra Club

Ainda Há Lugar

Harpa Cristã

Cifra: Principal (violão e guitarra)
tom: E
E|-------------------|-------2---2----|-5---7---5---0-|---7-0--9-7----|
B|-12--11-12-9-------|-9--9--4-5-4----|-4---7-7-7---9-|-7-0-11---0----|
G|-13--11-13-9----9--|-9--9--2-6-4----|-4---4-4-------|-8-8-6--9-8----|
D|-9---11-9--9-------|-9--9----6------|-4-------9---9-|-9------8------|
A|----------------11-|-------2-4-2----|-----6-6-7---7-|-9-9-9--9------|
E|-12--12-12-12---12-|-12-12----------|---------------|----------7----|

E|-7------------|-7--------------|----------------|-0------------|--------------|
B|---------9----|---------9------|-9----10-9----7-|-0------------|--------------|
G|-9-------9----|-8-------9----9-|-9----9--8----8-|--------------|--------------|
D|-6-------9----|-7-------6----8-|-9-------9----7-|--------------|--------------|
A|-7-------7----|----------------|------9---------|-11-----------|--------------|
E|--------------|-7-------9----9-|-7----7--7----7-|-12-----------|--------------|

00:00 / 00:00
Outros vídeos desta música
Repetir
Outros vídeos desta música
Compositor não encontrado.
Colaboração e revisão:
  • Helon Oliveira
3.235 exibições
    • ½ Tom
    • A
    • Bb
    • B
    • C
    • Db
    • D
    • Eb
    • E
    • F
    • F#
    • G
    • Ab
  • Adicionar à lista

    0 comentários

    Ver todos os comentários

    Entre para oCifra Club PRO

    Tenha acesso a benefícios exclusivos no App e no Site

    • Chega de anúncios

    • Prioridade de compra em lançamentos

    • Mais recursos no app do Afinador

    • Atendimento Prioritário

    • Descontos nos produtos Cifra Club

    • Ajude a produzir mais conteúdo

    00:00 / 00:00

    Cifra Club Pro

    Aproveite o Cifra Club com benefícios exclusivos e sem anúncios
    Cifra Club Pro
    Aproveite o Cifra Club com benefícios exclusivos e sem anúncios
    OK