Cifra Club

Black Friday Cifra Club

Ali Quero Ir, e Tu?

Harpa Cristã

Cifra: Principal (violão e guitarra)
tom: G
E|----------0--0---0-0-0--0-0-|-2---5-5-0-----5---5-5-7--5-|
B|----------2--2---2-2-2--2-2-|-3---3-3----5--5---5-5----5-|
G|----------2--2---2-2-2--2-2-|-2---2-2-6--6----------9----|
D|----------------------------|-0---4-4-7--7--7---7-7-6--7-|
A|----------0--0---0-0-0--0-0-|------------0----------7----|
E|----------------------------|---------------9---9-9----9-|

E|-9--------0--0---0-0-0--0-0-|-2---5-5-0-----5-7-9-7-----|
B|-5--------2--2---2-2-2--2-2-|-3---3-3----5--5---5----10-|
G|----------2--2---2-2-2--2-2-|-2---2-2-6--6----9---7--6--|
D|-7--------------------------|-0---4-4-7--7--7-6-7-6--7--|
A|-0--------0--0---0-0-0--0-0-|------------0----7-7-7--0--|
E|----------------------------|---------------9-----------|

E|----------------9---9-9-9-----|-7--------------5---5-5-7--5-|
B|-10-------10-10------------10-|-7--10-7--5--5---------------|
G|-6--------6--6--9---9-9-9--9--|----11-7--6--6--6---6-6-7--6-|
D|-7--------7--7--7---7-7-7--7--|-7--7--7--7--7--7---7-7-6--7-|
A|-0--------0--0--0---0-0-0-----|----------0--0--0---0-0-7--0-|
E|---------------------------9--|-10-10-10--------------------|

E|-9-----------9---9-9-9--------|-7--------------5-7-9-7--5-|
B|-5--------10------------10-10-|-7--10-7--5--5--5---5----2-|
G|----------6--9---9-9-9--9--9--|----11-7--6--6----9---7--2-|
D|-7--------7--7---7-7-7--7--7--|-7--7--7--7--7--7-6-7-6----|
A|-0--------0--0---0-0-0--------|----------0--0----7-7-7--0-|
E|------------------------9--9--|-10-10-10-------9----------|

E|-5--------9--12--12-12-12--9--|-7--------0--0------------7--9-|
B|-2--------10---------------10-|-7--10-7--------10--10-10------|
G|------------------------------|----11-7--6--6--6---6--6--9--8-|
D|-2--------7--7---7--7--7---7--|-7--7--7--7--7--7---7--7--6--7-|
A|-0--------0--0---0--0--0---0--|----------0--0--0---0--0--7----|
E|------------------------------|-10-10-10--------------------7-|

E|-7--------9--12--12-12-12--9--|-7--5---------5---7-9-7--5-|
B|----------10---------------10-|-7--7-7-5--5--------5------|
G|-9----------------------------|------7-6--6--6---7---7--6-|
D|-6--------7--7---7--7--7---7--|-7--7-7-7--7--7---6-7-6--7-|
A|-7--------0--0---0--0--0---0--|----5-5-------7---7-7-7----|
E|------------------------------|-10-----5--5-------------5-|

E|-5--------------------|
B|----------------------|
G|-6--------------------|
D|----------------------|
A|-7--------------------|
E|-5--------------------|

00:00 / 00:00
Outros vídeos desta música
Repetir
Outros vídeos desta música
Compositor não encontrado.
Colaboração e revisão:
  • Helon Oliveira
2.619 exibições
    • ½ Tom
    • A
    • Bb
    • B
    • C
    • Db
    • D
    • Eb
    • E
    • F
    • F#
    • G
    • Ab
  • Adicionar à lista

    0 comentários

    Ver todos os comentários

    Entre para oCifra Club PRO

    Tenha acesso a benefícios exclusivos no App e no Site

    • Chega de anúncios

    • Prioridade de compra em lançamentos

    • Mais recursos no app do Afinador

    • Atendimento Prioritário

    • Descontos nos produtos Cifra Club

    • Ajude a produzir mais conteúdo

    00:00 / 00:00

    Cifra Club Pro

    Aproveite o Cifra Club com benefícios exclusivos e sem anúncios
    Cifra Club Pro
    Aproveite o Cifra Club com benefícios exclusivos e sem anúncios
    OK