Cifra Club

Black Friday Cifra Club

Ao Gólgota

Harpa Cristã

Cifra: Principal (violão e guitarra)
tom: Bb
E|-------------3-1-3-4--3-4-|-6----3---4--6-4-3-1-3-4-|-3-----------3-1-3-4--3-4-|
B|----------4--4-4-4-3--3-3-|-4----4---3--3-3-3-3-3-3-|-4--------4--4-4-4-3--3-3-|
G|----------0--3-3-3-3--3-3-|-3----3------------3-3-3-|-3--------0--3-3-3----3-3-|
D|----------1--1-1-1-3--3-3-|-5--------5--3-3-3-------|-1--------1--1-1---3--3-3-|
A|--------------------------|------6---6--------1-1-1-|-----------------6--------|
E|--------------------------|-------------6-6-6-------|--------------------------|

E|-6----3---6--6-4-3-1-3-1-|----------6--8-8-8-4-6-8-|-6----3---6--6-4-3-1-3-4-|
B|-4----4---4--3-3-3-3-3-3-|-4--------4--4-4-4-4---4-|-4----4---4--3-3-3-3-3-3-|
G|-3----3---0------3-1-3-1-|-0--------0----------8---|-0----3---0--------3-3-3-|
D|-5-----------3-3---------|-------------6-6-6-6-5-6-|-------------3-3-3-------|
A|------6---6--------1-1-1-|-6--------6--------------|-6----6---6--------1-----|
E|-------------6-6-6-------|-------------4-4-4-8-6-4-|-------------6-6-6---6-6-|

E|-3--------6--8-8-8-4-6-8-|-6----3-------3-4-3---------|----------------------|
B|-4--------4--4-4-4-4---4-|-4----4---4-6-4-4-4-6-------|----------------------|
G|-3--------0----------8---|-0----3-------3-5-3----8--7-|-0--------------------|
D|-------------6-6-6-6-5-5-|----------6---------8--8--8-|-13-------------------|
A|-6--------6--------------|-6----6---3---------11-10-8-|-13-------------------|
E|-------------4-4-4-8-6-4-|--------------6-6-6-6--6--6-|-11-------------------|

00:00 / 00:00
Outros vídeos desta música
Repetir
Outros vídeos desta música
Compositor não encontrado.
Colaboração e revisão:
  • Helon Oliveira
6.008 exibições
    • ½ Tom
    • A
    • Bb
    • B
    • C
    • Db
    • D
    • Eb
    • E
    • F
    • F#
    • G
    • Ab
  • Adicionar à lista

    0 comentários

    Ver todos os comentários

    Entre para oCifra Club PRO

    Tenha acesso a benefícios exclusivos no App e no Site

    • Chega de anúncios

    • Prioridade de compra em lançamentos

    • Mais recursos no app do Afinador

    • Atendimento Prioritário

    • Descontos nos produtos Cifra Club

    • Ajude a produzir mais conteúdo

    00:00 / 00:00

    Cifra Club Pro

    Aproveite o Cifra Club com benefícios exclusivos e sem anúncios
    Cifra Club Pro
    Aproveite o Cifra Club com benefícios exclusivos e sem anúncios
    OK