Cifra Club

Black Friday Cifra Club

Ao Pai Voltai

Harpa Cristã

Cifra: Principal (violão e guitarra)
tom: G
E|---------------|-7-----6-7---3-|-------5-------|-----3---3---7-|-7-------------|
B|-------------3-|-----3---3---3-|-8-------8---5-|-3---0-------0-|-----10--------|
G|---------------|-0---4---4---4-|-----5---5---5-|-----0-------0-|-----7---7---7-|
D|---------------|---------------|-----5---5---5-|-----0---------|-0---7---7-----|
A|---------------|---------------|-----7---7---7-|---------2---7-|-----9---9-----|
E|---------------|---------------|-8-------------|-3-------------|---------------|

E|-7--------7-----|-------5-------|-----3---7-----5-|-5-----------7-|
B|-------11-----8-|-8-------8---5-|-----0-----------|-----8-------8-|
G|-----7----7---7-|-----5---5---5-|-7---0-------7---|-5---0-------0-|
D|-----9----9---9-|-----5---5---5-|-0-------0---5---|-7---9---------|
A|-10-------------|-----7---7---7-|-----------------|-9-------------|
E|----------------|-8-------------|-----------------|-10------------|

E|-10----------7--|-7-------------|-5----5--5---8--|-8---7-------7-|
B|-12----------8--|-8-----------8-|-7----7--7---10-|-10--8-------8-|
G|-0---0---0---0--|-7-------7---0-|-7----7--7---7--|-7---7-------0-|
D|-----0----------|-----9-------9-|-0----0--0---0--|-------------9-|
A|----------------|-10--10--10----|----------------|-10--10--------|
E|-------------12-|---------------|----------------|---------------|

E|-10----------7-|-7-------------|-5---5---7----5-|-5---3--------|
B|-12----------8-|-8-----------8-|-7---7---7----7-|-7---0--------|
G|-0---0---0---0-|-7-------7---0-|-7---7---7----5-|-5------------|
D|-----0-------9-|-----9-------9-|----------------|--------------|
A|---------------|-10--10--10----|-5---5---5----5-|-5------------|
E|---------------|---------------|----------------|-----3--------|

00:00 / 00:00
Outros vídeos desta música
Repetir
Outros vídeos desta música
Compositor não encontrado.
Colaboração e revisão:
  • Helon Oliveira
1.480 exibições
    • ½ Tom
    • A
    • Bb
    • B
    • C
    • Db
    • D
    • Eb
    • E
    • F
    • F#
    • G
    • Ab
  • Adicionar à lista

    0 comentários

    Ver todos os comentários

    Entre para oCifra Club PRO

    Tenha acesso a benefícios exclusivos no App e no Site

    • Chega de anúncios

    • Prioridade de compra em lançamentos

    • Mais recursos no app do Afinador

    • Atendimento Prioritário

    • Descontos nos produtos Cifra Club

    • Ajude a produzir mais conteúdo

    00:00 / 00:00

    Cifra Club Pro

    Aproveite o Cifra Club com benefícios exclusivos e sem anúncios
    Cifra Club Pro
    Aproveite o Cifra Club com benefícios exclusivos e sem anúncios
    OK