Cifra Club

Aos Teus Pés

Harpa Cristã

Cifra: Principal (violão e guitarra)
exibições 4.119
Tom: A
E|---------------------|--------------|---------0--0--0-----|--------------|
B|-10---10-10-10-8--10-|-13------10---|-8----8--13-13-11-8--|-10-----------|
G|-10---10-10-10-10-10-|-10------10---|-9----9--0--0--0--9--|-10-----------|
D|-10---10-10-10-8--10-|---------10---|-10---10----------10-|-10-----------|
A|---------------------|-12-----------|---------------------|-8------------|
E|-13---13-13-13-13-13-|-13------13---|-8----8--8--8--8--8--|--------------|

E|---------------------|--------------|---------0--0--0----|--------------|
B|-10---10-10-10-8--10-|-13------10---|-8----8--13-13-11-8-|--------------|
G|-10---10-10-10-10-10-|-10------10---|-9----9--0--0--0--9-|-10-----------|
D|-10---10-10-10-8--10-|---------10---|-10---10----------8-|-7------------|
A|-8----8--8--8--8-----|-12-----------|--------------------|-8------------|
E|------------------13-|-13------13---|-8----8--8--8--8--8-|--------------|

E|-10---10-6--6--10-10-|-8-------5----|-0----0--8-8-6-0-|-5------------|
B|-6----6--6--6--6--6--|-6-------6----|-8----8--5-5-5-8-|-6------------|
G|---------------------|---------5----|-5----5--0-0-0-5-|-5------------|
D|-8----8--8--8--8--8--|-7------------|-----------------|--------------|
A|---------------------|-8-------8----|-----------------|-8------------|
E|-6----6--10-10-6--6--|--------------|-8----8--8-8-8-8-|--------------|

E|-10---10-6--6--10-10-|-8-------5----|-0----0--8-8-6-3-|--------------|
B|-6----6--6--6--6--6--|-6-------6----|-8----8--5-5-5-5-|-6------------|
G|---------------------|---------5----|-5----5--0-0-0-3-|--------------|
D|-8----8--8--8--8--8--|-7------------|-----------------|-7------------|
A|---------------------|-8-------8----|---------------3-|-8------------|
E|-6----6--10-10-6--6--|--------------|-8----8--8-8-8---|--------------|
Acordes para:
    Composição: Harpã Cristã Colaboração e revisão:
    • Helon Oliveira

    0 comentários

    mostrar mais comentários

    Conseguiu tocar?

    0 tocaram 0 ainda não

    Grave um vídeo tocando Aos Teus Pés e mande pra gente!

    00:00 / 00:00
    outros vídeos desta música
    repetir qualidade Automático
    Outros vídeos desta música
    00:00 / 00:00
    Automático
    OK