Cifra Club

Black Friday Cifra Club

Bastante Para Mim!

Harpa Cristã

Cifra: Principal (violão e guitarra)
tom: G
E|-----------4-|-4----1--4-3-|-3-------3-|-3----3--4---|-------------|
B|------4--4---|------1--2-2-|-2-------2-|-2----2--1-4-|-4-------1-1-|
G|------5--5-5-|-5----1----3-|-3-------3-|-3----3--1-6-|-5----5--3-1-|
D|------6--6---|---------1-1-|-1-------1-|-1----1--1-5-|-6----6--5-3-|
A|-----------6-|-6-------1---|-----------|-----------6-|-------------|
E|------4--4-4-|-4----4------|-----------|-------------|-4-----------|

E|-3-------4-3-|-1-------1-|-6-------6---|----------------|
B|-1----1--1-1-|-1-------1-|------6----6-|-11----------8--|
G|-3----3--1-3-|-1-------1-|-7----7--7-7-|-8--8--10-10-8--|
D|-2----2--3-3-|-3-------3-|-6----6--6-6-|-8--8--12-12-11-|
A|-------------|-----------|-------------|-10-10-11-11-13-|
E|-------------|-----------|-6----6--6-6-|-11-11-11-11-11-|

E|-4--------4--4-3-4-6--8--4--------|-8--------8--8-6-8--9---11-8----------|
B|------4------4-4-4-4--4--4---6-4--|-4----6------9-8-9--11--8--9------9---|
G|-5----5------5-3-5-6-----5---6-5--|------8------8-8-8--8---8--8---8--8---|
D|-6----6------------------6---6-6--|-6----6------------------------10-----|
A|-------------6-6-6-6--6-----------|-------------6-6-----------11--11-11--|
E|-4--------------------------------|-4---------------11-11--11------------|

E|-11-------11-11-9--8--6--8--9----------|-8--------9--8---6-4--------------|
B|-9----13-----13-11-9--6--6--6---9-8--6-|-----9-9--6--4---4-4--------------|
G|------8------8--8--8--6--------------0-|-8---5-8--0------6-5--------------|
D|-10----------------------7--8---8-8----|-6-----------6-----6--------------|
A|-11---11-----11-11-11-------------6--6-|-6---6-6--6--6---6----------------|
E|----------------------9--8--6---6------|-------------------4--------------|

00:00 / 00:00
Outros vídeos desta música
Repetir
Outros vídeos desta música
Compositor não encontrado.
Colaboração e revisão:
  • Helon Oliveira
1.462 exibições
    • ½ Tom
    • A
    • Bb
    • B
    • C
    • Db
    • D
    • Eb
    • E
    • F
    • F#
    • G
    • Ab
  • Adicionar à lista

    0 comentários

    Ver todos os comentários

    Entre para oCifra Club PRO

    Tenha acesso a benefícios exclusivos no App e no Site

    • Chega de anúncios

    • Prioridade de compra em lançamentos

    • Mais recursos no app do Afinador

    • Atendimento Prioritário

    • Descontos nos produtos Cifra Club

    • Ajude a produzir mais conteúdo

    00:00 / 00:00

    Cifra Club Pro

    Aproveite o Cifra Club com benefícios exclusivos e sem anúncios
    Cifra Club Pro
    Aproveite o Cifra Club com benefícios exclusivos e sem anúncios
    OK