Cifra Club

Bem-Aventurança do Crente

Harpa Cristã

Cifra: Principal
exibições 8.802
Tom: C#
E|---------1-1-|-------1-6----|---------8-----|------------------|-6-----------|
B|---------3-3-|-3---3-3-3-8--|------------11-|-10-8--6-6--8--10-|---------6-6-|
G|---------3-3-|-3-3-3-3-3-8--|-8---8---10-10-|-10-8--7----8--8--|-7-------7-7-|
D|-------------|-3-0-3-----8--|-8---10-----0--|-8--8--8-8--8-----|---------8-8-|
A|---------1-1-|-1-1-1-1------|-10--12--12-13-|---------------8--|-8-----------|
E|-------------|---------6-11-|-11--13--13----|-11-11-6-10-11-8--|-6-------6-6-|

E|---------6----|---------8-----|-----------0-5-|-6-------6-8-|
B|-------6---8--|------------11-|-10-8--6-6-8-4-|-------------|
G|-7---7-7-7-8--|-8---8---10-10-|-10-8--7-7-6-7-|-7-------7-8-|
D|-8-8-8-8-8-8--|-8---10-----0--|-8--8--8-------|-8-------8-8-|
A|-8-5-8--------|-10--12--12-13-|-------8-8-8-8-|-------------|
E|-6-6-6-6-6-11-|-11--13--13----|-11-11---------|-6-------6-6-|

E|-10-10-10-10-11-10-|-8---8---10-8--|-------0--0-------|-------------|
B|-6--6--6--6-----6--|---------------|-11-11-11-11-10-8-|---------6-6-|
G|-------------------|-8---8---7--8--|-7--7--0--0--10-9-|-10------7-7-|
D|-8--8--8--8--8--8--|-7---7---8--10-|-8--8--10-10-10-8-|-7-------8-8-|
A|-------------------|-8---9---10-10-|-10-10------------|-8-----------|
E|-6--6--6--6--6--6--|---------------|-------------8--8-|---------6-6-|

E|---------6----|---------8-----|-----------3-5-|-6--------|
B|-------6---8--|------------11-|-10-8--6-6-5-4-|-3--------|
G|-7---7-7-7-8--|-8---8---10-10-|-10-8--7-7-6-7-|-3--------|
D|-8-8-8-8-8-8--|-8---10-----0--|-8--8--8---3-3-|----------|
A|-8-5-8--------|-10--12--12-13-|-------8-8-----|----------|
E|-6-6-6-6-6-11-|-11--13--13----|-11-11---------|-6--------|
Acordes para:
    Colaboração e revisão:
    • Helon Oliveira

    0 comentários

      mostrar mais comentários

      Conseguiu tocar?

      0tocaram0ainda não

      Grave um vídeo tocando Bem-Aventurança do Crente e mande pra gente!

      00:00 / 00:00
      outros vídeos desta música
      repetirqualidadeautomática
      Outro vídeos desta música
        00:00 / 00:00
        automática
        OK