Cifra Club

Black Friday Cifra Club

Bendito Cristo, Eis-me Aqui

Harpa Cristã

Cifra: Principal (violão e guitarra)
tom: Eb
E|--------------------------|-------------6---------|---------------------6-|
B|------------------------6-|-8-------8---8----9--8-|-6----8--9---8-------8-|
G|---------------------8----|-8-------8--------10-8-|-7----8--10--8-------8-|
D|------------------------6-|-8-------8---8-------8-|-8-------8---8---------|
A|---------------------10---|-6-------6---6-------6-|-------------6-------6-|
E|---------------------11---|-----------------------|-6-------6-------------|

E|-6-------------------8-|-8-------6-----------------|------------------------|
B|-6---6---8---9-------9-|-9-------8---8-------------|-8-------8---11---9--8--|
G|-7-------8---10------7-|-8-------8---8-------0--10-|-8-------8---12---10-8--|
D|-8-------8---8---------|-------------8-------13----|-8-------8---8----------|
A|-----------------------|-6-------6--------------11-|------------------8--10-|
E|---------------------6-|-------------11------11----|-11------11--11---------|

E|-8-------8---11---10-8--|-6-------6---6---------|-------------6--------|
B|---------------------9--|-8-------8---8----9--8-|-6--------------------|
G|-13------13--13------8--|-8-------8--------10-8-|-7-----------7--------|
D|-10------10--10---8-----|-------------8-------8-|-8-----------8--------|
A|-11------11--11------11-|-6-------6---6-------6-|----------------------|
E|------------------------|-----------------------|-------------6--------|

E|----------------------|----------------------|
B|-8--------------------|----------------------|
G|-8--------------------|----------------------|
D|-8--------------------|----------------------|
A|-6--------------------|----------------------|
E|----------------------|----------------------|

00:00 / 00:00
Outros vídeos desta música
Repetir
Outros vídeos desta música
Compositor não encontrado.
Colaboração e revisão:
  • Helon Oliveira
1.956 exibições
    • ½ Tom
    • A
    • Bb
    • B
    • C
    • Db
    • D
    • Eb
    • E
    • F
    • F#
    • G
    • Ab
  • Adicionar à lista

    0 comentários

    Ver todos os comentários

    Entre para oCifra Club PRO

    Tenha acesso a benefícios exclusivos no App e no Site

    • Chega de anúncios

    • Prioridade de compra em lançamentos

    • Mais recursos no app do Afinador

    • Atendimento Prioritário

    • Descontos nos produtos Cifra Club

    • Ajude a produzir mais conteúdo

    00:00 / 00:00

    Cifra Club Pro

    Aproveite o Cifra Club com benefícios exclusivos e sem anúncios
    Cifra Club Pro
    Aproveite o Cifra Club com benefícios exclusivos e sem anúncios
    OK