Cifra Club

Cantai, Ó Peregrinos

Harpa Cristã

Cifra: Principal
exibições 910
Tom: A
E|----------------|----------------|---------3-----|---------0-----|
B|-------------13-|-13---10-11--10-|-10------5-----|-6---6---8---6-|
G|-------------14-|-14---10-9---10-|-10------3---5-|-7---7-------7-|
D|-------------10-|-10---10-12--10-|-10----------8-|-7---7---8---7-|
A|----------------|---------13-----|---------3-----|-8---5---------|
E|-------------13-|-13---13-----13-|-13----------8-|---------6---6-|

E|-8-----------8-|-10---8--6---0--|-8--------------|-----12--12--10-|
B|-5-----------6-|-5----5--5---10-|---------10--0--|-0---0---0---0--|
G|-0-------------|-0-------0---0--|-10------10--12-|-12--12--12--10-|
D|-------------7-|-8----7---------|-7-------10--12-|-12-------------|
A|---------------|----------------|-8--------------|-10--10--10--10-|
E|-8-----------8-|------8--8---8--|---------13--10-|----------------|

E|-8-----------8-|-10---8--8---5-|-8-------5---5-|-6----0--------|-0-----------0-|
B|-5-----------6-|-5----5--5---5-|-6-------6---6-|-8-------6---3-|-2-------------|
G|-0-------------|-0-------0---0-|---------5---5-|------0--7---0-|-2-----------0-|
D|-------------7-|-8----7--------|-7-------------|---------0-----|---------------|
A|---------------|---------------|-8-------8---8-|-7----7--8-----|-0-----------3-|
E|-8-----------8-|------8--8---8-|---------------|-9----9------6-|---------------|

E|-1----0--1-----|---------8---10-|-8----6--5---3-|--------------|
B|---------3---8-|-10------10--8--|-6----8--6---5-|-6------------|
G|-2----0--2---9-|-10-------------|---------5---3-|-5------------|
D|-3----2--0---8-|---------10--8--|-7----8--------|-7------------|
A|---------------|-8-------8------|-------------3-|-8------------|
E|-------------9-|-8-----------6--|-8----8--8-----|--------------|

E|-5-------------5-|---------------|-8-------7-8-10-8-|-8-------5-----|
B|---------8-6-8---|-6-------------|-------------6--5-|---------------|
G|-5-------------5-|---------5-----|-10------9-9------|-5-------5-----|
D|---------8-7-8---|-7-------------|-7-------6-7-8--7-|-7-------5-----|
A|-8---------------|-8-------8-----|-8----------------|-8-------------|
E|---------8-------|-----8---5---1-|---------8--------|-----8---5---1-|

E|-----------------8-|-----8---13--13-|-12---8------7-|-8-------6-----|
B|-8-------8-10-11---|-10--10--10--10-|-8----8------6-|-5-------------|
G|---------9-9--9--9-|-10-------------|---------------|---------5-----|
D|-8-------8-8--8--8-|-7---10--12--12-|-10------------|---------5---5-|
A|-------------------|-8---8----------|------7------5-|---5-7-8-------|
E|-8-------8-8--8--8-|---------10--10-|-8----8--3---3-|-8-----------8-|

E|-5-------------5-|---------------|-8-------7-8-10-8-|-8-------5-----|
B|---------8-6-8---|-6-------------|-------------6--5-|---------------|
G|-5-------------5-|---------5-----|-10------9-9------|-5-------5-----|
D|---------8-7-8---|-7-------------|-7-------6-7-8--7-|-7-------------|
A|-8---------------|-8-------8-----|-8----------------|-8-------8-----|
E|---------8-------|-----8---5---1-|---------8--------|-----8---5---1-|

E|-----------------8-|-----8---13--10-|-8----8--8---8-|-1------------|
B|-8-------8-10-11---|-10--10--10--6--|---------------|-1------------|
G|---------9-9--9--9-|-10-------------|-10---10-9---9-|-2------------|
D|-8-------8-8--8--8-|-7---10--12--8--|-7----7--8---8-|-3------------|
A|-------------------|-8---8----------|-0----0--------|--------------|
E|-8-------8-8--8--8-|---------10--6--|---------8---8-|--------------|
Acordes para:
    Colaboração e revisão:
    • Helon Oliveira

    0 comentários

      mostrar mais comentários

      Conseguiu tocar?

      0tocaram0ainda não

      Grave um vídeo tocando Cantai, Ó Peregrinos e mande pra gente!

      00:00 / 00:00
      outros vídeos desta música
      repetirqualidadeautomática
      Outro vídeos desta música
        00:00 / 00:00
        automática
        OK