Cifra Club

Black Friday Cifra Club

Careço de Jesus

Harpa Cristã

Cifra: Principal (violão e guitarra)
tom: G
E|-3-2-3-6--3--3----1---|-1-0-1-3--4-----------|----------11--------------------|
B|-4-4-4-4--4--4----4---|-3-2-3-3--3--11-------|-11-10-11-----8--8--6--8--11--9-|
G|-3-2-3-3--3--2----2---|-1-3-1-3--1--0--------|-0-----0--0---8--8--8--8--8-----|
D|-------5-----3----3---|-------------13-------|-13-13-13-13--8--10-10-10-10----|
A|-6-6-6----6-----------|-1-1-1-1--1-----------|----9------------11-11-10-8-----|
E|----------------------|-------------11-------|-11-11-11-11--11----------------|

E|-------6--------------|----------------------|
B|-8-7-8----8--6--------|----------------------|
G|-8-8-8-8--8-------0---|----------------------|
D|-8-7-8-6--6--8----13--|----------------------|
A|-------------11---13--|----------------------|
E|-6-6-6-6--6--6----11--|----------------------|

00:00 / 00:00
Outros vídeos desta música
Repetir
Outros vídeos desta música
Compositor não encontrado.
Colaboração e revisão:
  • Helon Oliveira
1.718 exibições
    • ½ Tom
    • A
    • Bb
    • B
    • C
    • Db
    • D
    • Eb
    • E
    • F
    • F#
    • G
    • Ab
  • Adicionar à lista

    0 comentários

    Ver todos os comentários

    Entre para oCifra Club PRO

    Tenha acesso a benefícios exclusivos no App e no Site

    • Chega de anúncios

    • Prioridade de compra em lançamentos

    • Mais recursos no app do Afinador

    • Atendimento Prioritário

    • Descontos nos produtos Cifra Club

    • Ajude a produzir mais conteúdo

    00:00 / 00:00

    Cifra Club Pro

    Aproveite o Cifra Club com benefícios exclusivos e sem anúncios
    Cifra Club Pro
    Aproveite o Cifra Club com benefícios exclusivos e sem anúncios
    OK