Cifra Club

Crentes Cantai!

Harpa Cristã

Cifra: Principal
exibições 973
Tom: A
E|-------------------|-11--11--11--------|-11--11--11-----11-|---------11----|
B|----------------11-|-11--13--11-----11-|-11--13--11--11----|---------------|
G|-------------12-0--|-0-------0---12-0--|-0-------0---0--0--|---------------|
D|-------------------|-------------------|-------------------|---------8-----|
A|-------------------|-----11------------|-----11------------|---------------|
E|-------------11-11-|-11--11--11--11-11-|-11--11--11--11-11-|-6----6--6---6-|

E|-15----------------|-11--11--11--------|-11--11--11--11-15-|-13---13-13---5-|
B|----------------11-|-11--13--11-----11-|-11--13--11--11----|-15---15-13---6-|
G|-------------12-0--|-0-------0---12-0--|-0-------0---0-----|----------------|
D|-------------------|-------------------|-------------------|--------------3-|
A|-13----------------|-----11------------|-----11---------13-|-13---13-12---6-|
E|-11----------11-11-|-11--11--11--11-11-|-11--11--11--11-11-|-13---13-13-----|

E|-6-----------6-6-|-13--12--13------|-15----------------|-----12--13------|
B|-6---------------|-15--14--15------|-------------11-11-|-----14--15------|
G|-------------3-3-|-----------------|-----0-------0-----|-----------------|
D|-0---------------|-----------------|---------8---8--8--|-----------------|
A|-----------------|-13--13--13--1-1-|-13-------------6--|-----13--13--1-1-|
E|-6---------------|-----------------|-------------------|-6---------------|

E|-15----------11-11-|-11--11--13--15-|-------------8---|-11--6----------|
B|-------------------|---------15-----|-----------------|----------------|
G|-----0-------0-----|----------------|-5---------------|-0---0----------|
D|-------------13-13-|-13--13--12--11-|-------------6---|----------------|
A|-13------13--------|----------------|-----------------|----------------|
E|-------------------|-11----------11-|-4-----------4-4-|-6---6---6----6-|

E|-11-----------|
B|-11-----------|
G|-0------------|
D|--------------|
A|--------------|
E|-11-----------|
Acordes para:
    Colaboração e revisão:
    • Helon Oliveira

    0 comentários

      mostrar mais comentários

      Conseguiu tocar?

      0tocaram0ainda não

      Grave um vídeo tocando Crentes Cantai! e mande pra gente!

      00:00 / 00:00
      outros vídeos desta música
      repetirqualidadeautomática
      Outro vídeos desta música
        00:00 / 00:00
        automática
        OK